Song name
# A B C D E F G H I J K L M N O P Q R S T U V W X Y Z

Socialburn - Down tab

verse   (x3)
e(------------------------)(----------)
b(------------------------)(----------)
g(------------------------)(----------)
d(------------------------)(----------)
a(--000-333-00-000-333-33-)(----------)
E(------------------------)(--111-333-)
  pm... ... .. ... ... ..     ... ...

verse(lead)(x3)
e(----------)(------)
b(----------)(------)
g(--2-5-555-)(--2-2-)
d(--2-5-555-)(--2-2-)
a(----------)(--2-2-)
E(----------)(------)

pre-chorus
e(-----------------------------------)
b(-----------------------------------)
g(-----------------------------------)
d(-----------------------------------)
a(-----------------------------------)
E(--11111111111111113333333333333333-)
  pm................................
chorus   (x3)
e(-------------------)(-------------------)
b(-------------------)(-------------------)
g(----------22222222-)(-------------------)
d(--3333333322222222-)(--5555555555555555-)
a(--3333333300000000-)(--5555555555555555-)
E(--11111111---------)(--3333333333333333-)

chorus(lead)
e(--1212-1212-1212-1212-151515/12-)
b(--------------------------------)
g(--------------------------------)
d(--------------------------------)
a(--------------------------------)
E(--------------------------------)

breakdown
e(------------)
b(------------)
g(------------)
d(--55-355-55-)
a(--55-355-55-)
E(--33-133-33-)

solo
e(----------------------------------------------)
b(----------------------------------------------)
g(--777-7/9-7/9-7/9-1212129-7/9-7/9-5/4-5/4-5/4-)
d(--555-5/7-5/7-5/7-1010107-5/7-5/7-3/2-3/2-3/2-)
a(----------------------------------------------)
E(----------------------------------------------)

solo continued
e(----------------------------------------------)
b(----------------------------------------------)
g(--7/9-7/9-7/9-1212129-7/9-7/9-5/4-5/4-5/4-5/7-)
d(--5/7-5/7-5/7-1010107-5/7-5/7-3/2-3/2-3/2-3/5-)
a(----------------------------------------------)
E(----------------------------------------------)

solo(lead)
e(--1212-1212-1212-1212-151515/12-)
b(--------------------------------)
g(--------------------------------)
d(--------------------------------)
a(--------------------------------)
E(--------------------------------)
Tap to rate this tab
# A B C D E F G H I J K L M N O P Q R S T U V W X Y Z