Song name
# A B C D E F G H I J K L M N O P Q R S T U V W X Y Z

Socialburn - Pretend tab

verse                                   verse(lead)
e(-----------------------------------)(---------)
b(-----------------------------------)(---------)
g(--9-9-xx-5555-555/4-4-4-4/7-777-77-)(--10-9-7-)
d(--9-9-xx-5555-555/4-4-4-4/7-777-77-)(---------)
a(--7-7-xx-3333-333/2-2-2-2/5-555-55-)(---------)
E(-----------------------------------)(---------)

chorus
e(----------------------)(---------------------)
b(----------553-3/5-8/7-)(---------------------)
g(--99-55-4-------------)(--5-5-5-5-5/77777777-)
d(--99-55-4-------------)(--5-5-5-5-5/77777777-)
a(--77-33-2-------------)(--3-3-3-3-3/55555555-)
E(----------------------)(---------------------)

breakdown   breakdown(lead)
e(--------)(------------------------)
b(--------)(--9-7-6-6h7-5-----------)
g(--7-5-4-)(--------------------5-7-)
d(--7-5-4-)(------------------------)
a(--5-3-2-)(------------------------)
E(--------)(------------------------)

solo
e(-----------------------)
b(-----------------------)
g(--7-9-77-5-7-4-444-555-)
d(-----------------------)
a(-----------------------)
E(-----------------------)
Tap to rate this tab
# A B C D E F G H I J K L M N O P Q R S T U V W X Y Z