Song name
# A B C D E F G H I J K L M N O P Q R S T U V W X Y Z

Socialburn - U tab

Help us improve GuitareTab! Take a short survey!
verse (delay)                 verse lead
e(----------------------------------------------------)(----19-17-15-17-)
b(----------------------------------------------------)(----------------)
g(----------------------------------------------11b12-)(----------------)
d(-----121212-111111-999-77----121212-111111-99-------)(----------------)
a(----------------------------------------------------)(--2-------------)
E(--77----------------------77------------------------)(----------------)
  pm.. . . .  . . .  ... .. ..  . . .  . . . ..   
chorus
e(------------------------------------------)
b(------------------------------------------)
g(--7-7-77777-2-2-22222---------------------)
d(--7-7-77777-2-2-22222-2-2-22222-5-5-55555-)
a(--5-5-55555-0-0-00000-2-2-22222-5-5-55555-)
E(----------------------0-0-00000-3-3-33333-)

chorus(lead)
e(---------------------------------------------)
b(---------------------------------------------)
g(--5-5-5555-5h6-777-999-1010-121212-101010-99-)
d(---------------------------------------------)
a(---------------------------------------------)
E(---------------------------------------------)

bridge
e(--------)(----------------)
b(--------)(----------------)
g(--4-6-7-)(--999-111111-12-)
d(--------)(----------------)
a(--------)(----------------)
E(--------)(----------------)

last chords
e(--------------------)
b(--------------------)
g(--------------------)
d(--9-9-9-9-9-9-99--7-)
a(--9-9-9-9-9-9-99--7-)
E(--7-7-7-7-7-7-77--5-)
              pm..
Related for U tab