Song name
# A B C D E F G H I J K L M N O P Q R S T U V W X Y Z

Socialburn - Vacancy tab

verse
e(--------------------------)
b(--------------------------)
g(--44-44-44-44-66-66-66-66-)
d(--44-44-44-44-66-66-66-66-)
a(--22-22-22-22-44-44-44-44-)
D(--------------------------)

verse(lead)
e(---------)
b(------12-)
g(--8/9----)
d(---------)
a(---------)
D(---------)

chorus
e(-------------------)
b(-------------------)
g(-------------------)
d(--9999999944444444-)
a(--9999999944444444-)
D(--9999999944444444-)

chorus(lead)  (x6)    (x2)
e(-----------14-)(---------)
b(--11-12-11----)(------12-)
g(--------------)(--8-9----)
d(--------------)(---------)
a(--------------)(---------)
D(--------------)(---------)

solo
e(-----------14-------------------14-------------------)
b(--11-12-11----12-14/16-11-12-11----12-14-12-11-12p11-)
g(-----------------------------------------------------)
d(-----------------------------------------------------)
a(-----------------------------------------------------)
D(-----------------------------------------------------)

solo continued
e(-----------14-----------------------14-------------------)
b(--11-12-11----12-14/16-16b-11-12-11----12-14-12-11-12p11-)
g(---------------------------------------------------------)
d(---------------------------------------------------------)
a(---------------------------------------------------------)
D(---------------------------------------------------------)

Tap to rate this tab
 
# A B C D E F G H I J K L M N O P Q R S T U V W X Y Z