Song name
# A B C D E F G H I J K L M N O P Q R S T U V W X Y Z

Sodom - Surfin Bird tab

Surfin' Bird



sodom



album: M-16



TRANSCRIBED BY RUDY GUZMAN



guzman_84@hotmail.com




Tuning: D,C,G,F,A,D

  B-B-B-bird, bird, bird, B-bird's the word
  A-well-a bird, bird, bird, the bird is the word...
|------------------------------------------------------------------------|
|------------------------------------------------------------------------|
|------------------------------------------------------------------------|
|-9-9-9-----9---9---------9-9-9-----9---9---------9-9-9-----9---9--------|
|-7-7-7-----7---7--0-5-6--7-7-7-----7---7--0-5-6--7-7-7-----7---7--0-5-6-|
|-------0-0---0-----------------0-0---0-----------------0-0---0----------|


 A-well-a don't you know about the bird?
 Well, everybody knows that the bird is the word!
|--------------------------------------------|
|--------------------------------------------|
|--------------------------------------------|
|-4-4-4-----4---4-4-4-4--2-2-2-----2---2-2-2-|
|-2-2-2-0-0-2-0-2-2-2-2--0-0-0-0-0-0-0-0-0-0-|
|--------------------------------------------|
                                      
                                              i guess everybody's heard about the bird
|-----------------------------------------------------------------------|
|-----------------------------------------------------------------------|
|-----------------------------------------------------------------------|
|-----------------------------------------------------------------------|
|-----------------------------------------------------------------------|
|-14-14-13-13-12-12-11-11-10-10-9-9-8-8-7-7-6-6-5-5-4-4-3-3-2-2-1-1\0---|


  B-B-B-bird, bird, bird, B-bird's the word
  A-well-a bird, bird, bird, the bird is the word...
|------------------------------------------------------------------------|
|------------------------------------------------------------------------|
|------------------------------------------------------------------------|
|-9-9-9-----9---9---------9-9-9-----9---9---------9-9-9-----9---9--------|
|-7-7-7-----7---7--0-5-6--7-7-7-----7---7--0-5-6--7-7-7-----7---7--0-5-6-|
|-------0-0---0-----------------0-0---0-----------------0-0---0----------|

 A-well-a don't you know about the bird?
 cos, everybody knows that the bird is the word!
|--------------------------------------------|
|--------------------------------------------|
|--------------------------------------------|
|-4-4-4-----4---4-4-4-4--2-2-2-----2---2-2-2-|
|-2-2-2-0-0-2-0-2-2-2-2--0-0-0-0-0-0-0-0-0-0-|
|--------------------------------------------|


Pa-pa-pa-pa-pa-pa-pa-pa-pa-pa-pa-pa-pa-pa-pa-pa
Papa-ooma-mow-mow, papa-ooma-mow-mow


 Papa-ooma-mow-mow, papa-ooma-mow-mow                                    
|------------------------------------------------------------------------|
|------------------------------------------------------------------------|
|------------------------------------------------------------------------|
|-9-9-9-----9---9---------9-9-9-----9---9---------9-9-9-----9---9--------|
|-7-7-7-----7---7--0-5-6--7-7-7-----7---7--0-5-6--7-7-7-----7---7--0-5-6-|
|-------0-0---0-----------------0-0---0-----------------0-0---0----------|  

 A-well-a don't you know about the bird?
 cos, everybody knows that the bird is the word!
|--------------------------------------------|
|--------------------------------------------|
|--------------------------------------------|
|-4-4-4-----4---4-4-4-4--2-2-2-----2---2-2-2-|
|-2-2-2-0-0-2-0-2-2-2-2--0-0-0-0-0-0-0-0-0-0-|
|--------------------------------------------|

  B-B-B-bird, bird, bird, B-bird's the word
  A-well-a bird, bird, bird, the bird is the word...
|------------------------------------------------------------------------|
|------------------------------------------------------------------------|
|------------------------------------------------------------------------|
|-9-9-9-----9---9---------9-9-9-----9---9---------9-9-9-----9---9--------|
|-7-7-7-----7---7--0-5-6--7-7-7-----7---7--0-5-6--7-7-7-----7---7--0-5-6-|
|-------0-0---0-----------------0-0---0-----------------0-0---0----------|

hillo son mex

23/09/09
Tap to rate this tab
 
# A B C D E F G H I J K L M N O P Q R S T U V W X Y Z