Song name
# A B C D E F G H I J K L M N O P Q R S T U V W X Y Z

Sodom - Marines tab

Intro Verse 1 :
Inclination for the rock'n roll war
under the flag of peace and law
your native country to set it free
in the air, on land and on the sea
for their honour and their golden crown
swing the judgements glory hammer down
the patriot within their valiant heart
keep'em hungry for the liberty love

hatred just a tool the aggressors to control
into the jungle's depth, into the desert storm
caught between legions of hate
caught beneath malefic eyes of fate 

   1 + 2 + 3 + 4                          1   +   2  +    3  + 4  
D|------------------|------------------|-------------------------|
A|------------------|------------------|-------------------------| x 3
F|------------------|------------------|-------------------------|
C|-9999999999999999-|-9999999999999999-|101010101010101077777777-|
G|-7777777777777777-|-7777777777777777-|7-7-7-7-7-7-7-7-77777777-|
D|------------------|------------------|-------------------------|

D|------------------|------------------|------------------|
A|------------------|------------------|------------------|
F|------------------|------------------|------------------|
C|-9999999999999999-|-9999999999999999-|-7777777755555555-| x 1
G|-7777777777777777-|-7777777777777777-|-5555555533333333-|
D|------------------|------------------|------------------|


Fill

D|-----------|
A|-----------|
F|-----------|
C|-2---------|
G|-2---------|
D|-0---------|

Intro Verse 2:
seems that we are doomed to drown your hopes
marching to the destiny, no attitudes to lie
don't want to leave that battlefield without a sign
engaged to the rifle by my side

  1 + 2 + 3 + 4                       1   +    2  +   3  +  4 
D|-----------------|-----------------|-------------------------|
A|-----------------|-----------------|-------------------------|
F|-----------------|-----------------|-------------------------|
C|-9------9--------|-9-------9-------|101010101010101077777777-|
G|-7------7--------|-7-------7-------|7-7-7-7-7-7-7-7-77777777-| x3
D|--0-0-0---0-0-0--|---0-0-0---0-0-0-|-------------------------|
 pm * * *   * * *      * * *   * * *
                                      1 + 2 + 3 + 4 
D|-----------------|-----------------|-----------------|
A|-----------------|-----------------|-----------------|
F|-----------------|-----------------|-----------------|
C|-9------9--------|-9-------9-------|7777777755555555-|
G|-7------7--------|-7-------7-------|5555555533333333-|
D|--0-0-0---0-0-0--|---0-0-0---0-0-0-|-----------------|
 pm * * *   * * *      * * *   * * *


Tap to rate this tab
 
# A B C D E F G H I J K L M N O P Q R S T U V W X Y Z