Song name
# A B C D E F G H I J K L M N O P Q R S T U V W X Y Z

Sodom - Equinox tab

Intro


E|-----------------------------------------------------------|
B|-----------------------------------------------------------|
G|------------------5----------------4--------5----7----9----|
D|-2----------------5----------------4--------5----7----9----|
A|-2----------------3----------------2--------3----5----7----|
E|-0---------------------------------------------------------|


Riff 1


E|--------------------------------------------------------------------------|
B|--------------------------------------------------------------------------|
G|-------------------------9-9---10-10---7----------------------7---5-5--4--|
D|-------------------------9-9---10-10---7----------------------7---5-5--4--|
A|-------------------------7-7---8 -8 ---5----------------------5---3-3--2--|
E|-00-00-00-00-00-00-00-00-----------------00-00-00-00-00-00-00-------------|


Riff 2


E|----------------------------------------------|
B|----------------------------------------------|
G|-7----5----------------------7----5----10--9--|
D|-7----5----------------------7----5----10--9--|
A|-5----3----------------------5----3----8 --7--|
E|-----------33-33-33-33-55-55------------------|


Riff 3


E|--------------------------------------------|
B|--------------------------------------------|
G|--------------------------------------------|
D|----------------------------------5-3-------|
A|--------------------------------------5-4-3-|
E|-00-00-00-00-00-00-00-00-00-00-00-----------|


Riff 4


E|--------------------------------------------|
B|--------------------------------------------|
G|-------------------------------------9-10---|
D|-------------------------------------9-10---|
A|-44-44-44-44-44-44-44-44-44-44-44-44-7-8 ---|
E|--------------------------------------------|


Order

Intro x 1
Riff 1 x 4
Riff 2 x 4
Riff 1 x 4
Riff 3 x 4
Riff 1 x 4
Miscellaneous noise over Riff 4 x 7
Miscellaneous noise over Riff 1 x 1
Riff 1 x 3
Riff 2 x 4
Riff 1 x 4
Riff 3 x 4
Miscellaneous leads
Tap to rate this tab
 
# A B C D E F G H I J K L M N O P Q R S T U V W X Y Z