Song name
# A B C D E F G H I J K L M N O P Q R S T U V W X Y Z

Sonics - Boss Hoss tab

Help us improve GuitareTab! Take a short survey!
*=play 8 times
#=play 16 times

intro/chorus:
e-------------------------------------|
b--*--*-------------------------------|
g-7--5--------------------------------|
d-5--3---5--3-3---------3-------------|
a------6-3------6-3-3-----6-3-------3-|
e-------------------------------3-6---|

verse:
e----------------------------------|
b----------------------------------|
g----------------------------------|
d-----------------3-3-3-3----------|
a-3-3-3-3-6-6-6-6---------6-6-6-6--|
e----------------------------------|


break:
e---------------------|
b---#-------#---#---*-|
g-10----#-10--12--12--|
d-10--10--10--12--12--|
a--8--10---8--10--10--|
e------8--------------|
Related for Boss Hoss tab