Guitaretab - guitar tabs
Song name
# A B C D E F G H I J K L M N O P Q R S T U V W X Y Z

Spiderbait - On My Way tab

Hey there, this is my first tab, 
i tried finding a tab for it on the site but
couldnt find 1 so i made up my own, here it is.

Bass intro for a few bars then:

               verse    repeat x8
e|-----------|-------------------------|
B|-----------|-------------------------|
G|-----------|-9-7-4-X-X-X--7-2-4-X-X-X|
A|---9-X-X-X-|-9-7-4-X-X-X--7-2-4-X-X-X|
D|---9-X-X-X-|-7-5-2-X-X-X--5-0-2-X-X-X|
E|---7-X-X-X-|-------X-X-X--------X-X-X|

     Chorus
e|------------------------------------------------------|
B|------------------------------------------------------|
G|------------------------------------------------------|
A|--5--7--9-----12--7--9-----12--7--9-----5--7--9-X-X-X-|
D|--5--7--9-----12--7--9-----12--7--9-----5--7--9-X-X-X-|
E|--3--5--7-----9---5--7-----9---5--7-----3--5--7-X-X-X-|
         (let ring)  

Repeat verse x5

   prechorus
e|----------------------------|
B|----------------------------|
G|--4--9-7-4--9-7-4--9-7-4----|
A|--4--9-7-4--9-7-4--9-7-4----|
D|--2--7-5-2--7-5-2--7-5-2----|
E|----------------------------|
[ Tab from: http://www.guitaretab.com/s/spiderbait/139097.html ]
     Chorus
e|------------------------------------------------------|
B|------------------------------------------------------|
G|------------------------------------------------------|
A|--5--7--9-----12--7--9-----12--7--9-----5--7--9-X-X-X-|
D|--5--7--9-----12--7--9-----12--7--9-----5--7--9-X-X-X-|
E|--3--5--7-----9---5--7-----9---5--7-----3--5--7-X-X-X-|
         (let ring)  

I cant tab the solo coz i dont know it.


   Repeat verse x8

   Prechorus
e|----------------------------|
B|----------------------------|
G|--4--9-7-4--9-7-4--9-7-4----|
A|--4--9-7-4--9-7-4--9-7-4----|
D|--2--7-5-2--7-5-2--7-5-2----|
E|----------------------------|


Chorus
e|------------------------------------------------------|
B|------------------------------------------------------|
G|------------------------------------------------------|
A|--5--7--9-----12--7--9-----12--7--9-----5--7--9-X-X-X-|
D|--5--7--9-----12--7--9-----12--7--9-----5--7--9-X-X-X-|
E|--3--5--7-----9---5--7-----9---5--7-----3--5--7-X-X-X-|

(another little solo bit i dont know)

  Repeat Verse x4

Outro
e|--------------------------------------|
B|--------------------------------------|
G|--7--2--4-----------------------------|
A|--7--2--4-----------------------------|
D|--5--0--2-----------------------------|
E|--------------------------------------|
Related for On My Way tab
Advertisement will be closed in 10 seconds