Song name
# A B C D E F G H I J K L M N O P Q R S T U V W X Y Z

Stereophonics - Rewind tab

Rewind-Stereophonics

Band-Kelly Jones-Vocals, Guitar
     Richard Jones-Bass
     Javier Weyler-Drums

Verse

    G5           Gmaj7         D            C

e-----------------------------------------------------|
B-8-8-8-8-8-8--7-7-7-7-7-7--7-7-7-7-7-7--5-5-5-5-5-5--|
G-7-7-7-7-7-7--7-7-7-7-7-7--7-7-7-7-7-7--5-5-5-5-5-5--|
D-5-5-5-5-5-5--5-5-5-5-5-5--7-7-7-7-7-7--5-5-5-5-5-5--|
A---------------------------5-5-5-5-5-5--3-3-3-3-3-3--|
E-----------------------------------------------------|

When Kelly Sings 'Hows Your Life?' Gtr 2 comes in and plays:

e--7--------|--7--------|--7---------|--7--------|
B----8------|-----------|----8-------|-----------|
G------7----|-----------|------7-----|-----------|
D-----------|-----------|------------|-----------|
A-----------|-----------|------------|-----------|
E-----------|-----------|------------|-----------| And keep this going

Pre- Chorus

Gtr 1

G5          Gmaj7          D           C (Same As Verse)

Gtr 2

'But Wait.......'

e--12--------10------------------| 
B-----12-----------12------12----|
G--------12------------12--------|
D--------------------------------|
A--------------------------------|
E--------------------------------| Keep This Going

Gtr 3

e---------------------------|
B---------------------------|
G-7-/\/\/\/\/\/\/\/\/\/\----|
D---------------------------|
A---------------------------|
E---------------------------| Again Keep This Going

Chorus

Gtr 1

G5        Gmaj7         D         C

Gtr 2
'Rewind Your Time.....'
e---------------7--|
B--8-----8--10-----|
G-----7------------|
D------------------|
A------------------|
E------------------| do this when neccesary

Gtr 3

Distortion + eBow

e---------------------|
B---------------------|
G---------------------|
D---------------------|
A-10/17---(17)\10/17--|
E---------------------| Keep This Going

Bridge

Gtr 1

G5          Gmaj7           D             C

Gtr 3 

Carries On With eBow

Thats It Enjoy!  
Tap to rate this tab
 
# A B C D E F G H I J K L M N O P Q R S T U V W X Y Z