Song name
# A B C D E F G H I J K L M N O P Q R S T U V W X Y Z

Steriogram - Just Like You tab

standard tuning

this part is played in the background after the bass has started the intro

-------------------------------------------------------------------------|
-------------------------------------------------------------------------|
-14-14-13-14-14-13-14-14-13-14-15--15-14-14-13-14-14-13-14-14-13-14-15---|
-------------------------------------------------------------------------|
-------------------------------------------------------------------------|
-------------------------------------------------------------------------|

VERSE
-------------------------------------------------------------------------|
-------------------------------------------------------------------------|
-------------------------------------------------------------------------|
--0-0--3-0--5-0------2---3-3-2-----0-0--3-0--5-0------2---3/5-3/2-2------|
----------------4--3---3-------3-----------------4--3---3-------3--------|
-------------------------------------------------------------------------|

-------------------------------------------------------------------------|
-------------------------------------------------------------------------|
-------------------------------------------------------------------------|
--0-0--3-0--5-0------2---3-3-2-----0-0--3-0--5-0------2-----2------------|
----------------4--3---3-------3-----------------4--3---3-3--------------|
-------------------------------------------------------------------------|

CHORUS

-------------------------------------------------------------------------|
-------------------------------------------------------------------------|
-------------------------------------------------------------------------|
--------------------xx77xx7xx77xx7---------------------------------------|
--88888888-55555555-xx55xx5xx55xx5-88888888-55555555-7777777777777777----|
--66666666-33333333----------------66666666-33333333-5555555555555555----|

VERSE 2
-------------------------------------------------------------------------|
-------------------------------------------------------------------------|
-------------------------------------------------------------------------|
--0-0--3-0--5-0------2---3-3-2-----0-0--3-0--5-0------2-----2------------|
----------------4--3---3-------3-----------------4--3---3-3--------------|
-------------------------------------------------------------------------|

-------------------------------------------------------------------------|
-------------------------------------------------------------------------|
-------------------------------------------------------------------------|
--0-0--3-0--5-0------2---3-3-2-----0-0--3-0--5-0------2---3/5-3/2-2------|
----------------4--3---3-------3-----------------4--3---3--------3-------|
-------------------------------------------------------------------------|

-------------------------------------------------------------------------|
-------------------------------------------------------------------------|
-------------------------------------------------------------------------|
--0-0--3-0--5-0------2---3-3-2-----0-0--3-0--5-0------2-----2------------|
----------------4--3---3-------3-----------------4--3---3-3--------------|
-------------------------------------------------------------------------|

this part is played in the background of the last bit of this verse listen
to the song carefully and you will hear it
-------------------------------------------------------------------------|
-------------------------------------------------------------------------|
-14-14-13-14-14-13-14-14-13-14-15--15-14-14-13-14-14-13-14-14-13-14-15---|
-------------------------------------------------------------------------|
-------------------------------------------------------------------------|
-------------------------------------------------------------------------|

CHORUS
-------------------------------------------------------------------------|
-------------------------------------------------------------------------|
-------------------------------------------------------------------------|
--------------------xx77xx7xx77xx7---------------------------------------|
--88888888-55555555-xx55xx5xx55xx5-88888888-55555555-77777777xxxxxxxx----|
--66666666-33333333----------------66666666-33333333-55555555xxxxxxxx----|

BRIDGE
-------------------------------------------------------------------------|
-------------------------------------------------------------------------|
-------------------------------------------------------------------------|
-------------------------------------------------------------------------|
--8888888888888888-5555555555555555-3333333333333333-7777777777777777----|
--6666666666666666-3333333333333333-1111111111111111-5555555555555555----|


-------------------------------------------------------------------------|
-------------------------------------------------------------------------|
-------------------------------------------------------------------------|
-------------------------------------------------------------------------|
--8888888888888888-5555555555555555-3333333333333333-7777777777777777----|
--6666666666666666-3333333333333333-1111111111111111-5555555555555555----|

-------------------------------------------------------------------------|
-------------------------------------------------------------------------|
-------------------------------------------------------------------------|
-------------------------------------------------------------------------|
--55555555-77777777------------------------------------------------------|
--33333333-55555555------------------------------------------------------|

-------------------------------------------------------------------------|
-------------------------------------------------------------------------|
-------------------------------------------------------------------------|
--0-0--3-0--5-0------2---3-3-2-----0-0--3-0--5-0------2-----2------------|
----------------4--3---3-------3-----------------4--3---3-3--------------|
-------------------------------------------------------------------------|

CHORUS
-------------------------------------------------------------------------|
-------------------------------------------------------------------------|
-------------------------------------------------------------------------|
--------------------xx77xx7xx77xx7-------------------xx77xx7xx77xx7------|
--88888888-55555555-xx55xx5xx55xx5-88888888-55555555-xx55xx5xx55xx5------|
--66666666-33333333----------------66666666-33333333---------------------|


-------------------------------------------------------------------------|
-------------------------------------------------------------------------|
-------------------------------------------------------------------------|
--------------------77777777---------------------------------------------|
--88888888-55555555-55555555-88888888-55555555-7777777777777777----------|
--66666666-33333333----------66666666-33333333-5555555555555555----------|


-------------------------------------------------------------------------|
-------------------------------------------------------------------------|
-------------------------------------------------------------------------|
--0-0--3-0--5-0------2---3-3-2-----0-0--3-0--5-0-------------------------|
----------------4--3---3-------3-----------------4--3--------------------|
-------------------------------------------------------------------------|

listen to the song for timing.im sure its all 100% correct.thanks
Tap to rate this tab
# A B C D E F G H I J K L M N O P Q R S T U V W X Y Z