Song name
# A B C D E F G H I J K L M N O P Q R S T U V W X Y Z

Steriogram - Walkie Talkie Man tab

Song: Walkie Talkie Man
Artist: Steriogram
Tuning: Standard (EADGBe)
Tabbed by Andrew (xenolith42@hotmail.com)

Any comments, good or bad, please email me.  It\'s good to know what people think, and it\'s
encouraging to hear from people who appreciate my work.

Pm...= Palm mute
/ = Slide up
\\ = Slide Down
h = Hammer-on
p = Pull off
b = bend up to note
r = release bend
~ = Vibrato


Intro:
                                                                      
E|--------------------------|--------------------------|
B|--------------------------|--------------------------|
G|--------------------------|--------------------------|
D|--------------------------|--------------------------|
A|--------------------3--4--|--5--5--4--3--2--2--------|
E|--0--0--3--4--5--5--------|--------------------3--4--|
                                                                      
							x2
                                                                      
E|--------------------------|--------------------------||
B|--------------------------|--------------------------||
G|--------------------------|--------------------------||
D|--------------------------|--------------------------||
A|--------------------3--4--|--5--5--4--3--2--2--2--2--||
E|--0--0--3--4--5--5--------|--------------------------||
                                                                      


Verse:
                                                                      
E|--------------------------|--------------------------|
B|--------------------------|--------------------------|
G|--------------------------|--------------------------|
D|--------------------------|--------------------------|
A|-----------2--0--0--4--0--|--5--5--------2--2--0--0--|
E|--0--0--3-----------------|--------2--2--------------|
  Pm...............................................   

                                                                      
E|--------------------------|--------------------------|
B|--------------------------|--------------------------|
G|--------------------------|--------------------------|
D|--------------------------|-----------------4-----2--|
A|-----------2--0--0--4--0--|--5--5-----------2-----0--|
E|--0--0--3-----------------|--------2--2--------------|
  Pm......................................           

E|--------------------------|--------------------------|
B|--------------------------|--------------------------|
G|--------------------------|--------------------------|
D|--------------------------|--------------------------|
A|-----------2--0--0--4--0--|--5--5--------2--2--0--0--|
E|--0--0--3-----------------|--------2--2--------------|
  Pm...............................................    

E|--------------------------|--------------------------|
B|--------------------------|--------------------------|
G|--------------------------|--------------------------|
D|--------------------------|--------------------------|
A|-----------2--0--0--4--0--|--5--5--------2--2--0--0--|
E|--0--0--3-----------------|--------2--2--------------|


Chorus:
(I didn\'t put in the strumming, only the chords.  It\'s fairly easy.)
   E5       A5       D5       B5               
E|--------|--------|--------|--------||
B|--------|--------|--------|--------||
G|--------|--------|--7-----|--4-----||	x3
D|--2-----|--7-----|--7-----|--4-----||
A|--2-----|--7-----|--5-----|--2-----||
E|--0-----|--5-----|--------|--------||
                                                   
 
    E5       A5       D5                               
E|--------|--------|-----------||
B|--------|--------|-----------||
G|--------|--------|--7--------||
D|--2-----|--7-----|--7--------||
A|--2-----|--7-----|--5--------||
E|--0-----|--5-----|-----------||
                                                  

Riff:
                                                                      
E|--------------------------|--------------------------|
B|--------------------------|--------------------------|
G|--------------------------|--------------------------|
D|--------------------------|--------------------------|
A|--------------------3--4--|--5--5--4--3--2--2--------|
E|--0--0--3--4--5--5--------|--------------------3--4--|
                                                                      

                                                                      
E|--------------------------|--------------------------||
B|--------------------------|--------------------------||
G|--------------------------|--------------------------||
D|--------------------------|--------------------------||
A|--------------------3--4--|--5--5--4--3--2--2--2--2--||
E|--0--0--3--4--5--5--------|--------------------------||
P.m.                          ........................


Play Verse again

Play chorus again


Instrumental break:
E|--------------------------|--------------------------|
B|--------------------4--5--|--6--6--5--4--3--3--------|
G|--------3--4--5--5--------|--------------------------|
D|--5--5--------------------|--------------------5--6--|
A|--------------------------|--------------------------|
E|--------------------------|--------------------------|
                                                                           

                                                                           
E---------------------------|----------------------|--------------||
B---------------------6--7--|--8-------------------|--------------||
G---------5--6--7--7--------|----------------------|--------------||
D---7--7--------------------|----------------------|--------------||
A---------------------------|-------------2--2--2--|--2--2--------||
E---------------------------|----------------------|--0--0--------||
                                                                          
Then only drums for a few bars.

Play Chorus again.

Play Intro riff again, but end on:

E|--------------------------|-----------------------------------------------------||
B|--------------------------|------------------------------10---------------------||
G|--------------------------|--------------------7-9-7-9b11---11r9-7-7h9p7---7-7--||
D|--------------------------|----------------7-9-----------------------------7-7--||
A|--------------------3--4--|--5~~---5/7-7/9---------------------------------5-5--||
E|--0--0--3--4--5--5--------|-----------------------------------------------------||
Tap to rate this tab
# A B C D E F G H I J K L M N O P Q R S T U V W X Y Z