Guitaretab - guitar tabs
Song name
# A B C D E F G H I J K L M N O P Q R S T U V W X Y Z

Steriogram - Get Up tab

Artist: Steriogram
Song: Get Up

Wicked-as song off the new album, this is my first shot at tabbing and Im only 14 so
me a break if I screw up.


Drop D Tuning


Intro/Verse

|  -------------------------------------------------------------------- |
|  -------------------------------------------------------------------- |
|  -------------------------------------------------------------------- |
|  -------------------------------------------------------------------- |
|  -------------------------------------------------------------------- |
|  ----0-0-0-0-0-0-0-0-10-h12-0-0-13-0-0-11-0-0-9-00-7-00-5-00-3-3-3-0- |

Chorus (Can you feel me)
[ Tab from: http://www.guitaretab.com/s/steriogram/149464.html ]
|  ----------------------------- |
|  ----------------------------- |
|  ----------------------------- |
|  ---6--------h8-8------4------ |
|   --6 (x12)-h8-8------4 (x13)  |
|  ---6--------h8-8------4------ |

 Break-(under bass/vocals)

|  ---------------------------------------------------------- |
|  ---------------------------------------------------------- |
|  -5------------/7--------------- }------------------------- |
|  -5 (x15?) ---/7  (x15?)------}x2-------------7-----5------ |
|  -3------------/5----------------}----------------7---- 5-- |
|  --------------------------------------------------7-----5- |

Format:

Drum Intro
Intro x2
Verse x2
Chorus x1
Verse x4
Chorus x1
Verse x4
Bass/Vocal Break x1
Verse x4
END

Im not positive about the guitar part in the break because ma stereo is crap and the
is too quite.
Neways, I hope the tab is decent, please rate it and if you like Kiwi Rock and Roll or
got some suggestions then email me on jamesdonaldson@hot-shot.com

cheers
Related for Get Up tab