Song name
# A B C D E F G H I J K L M N O P Q R S T U V W X Y Z

Steriogram - White Trash tab

-------------------------------------------------------------------------------
			     WHITE TRASH - STERIOGRAM
-------------------------------------------------------------------------------
Tabbed by: UNDERFUNKSTEVE
Email: ElliottKillingbeck@msn.com

Tuning: Normal (EADGBe)

INTRO + VERSES:

e|--------------------------------------------------------------------------|
B|--------------------------------------------------------------------------|
G|4--44-5--55-6--66-5-------------------------------------------------------|
D|5--55-5--55-5--55-5-------------------------------------------------------|
A|3--33-3--33-4--44-3-------------------------------------------------------|
E|--------------------------------------------------------------------------|

CHORUS:

e|--------------------------------------------------------------------------|
B|--------------------------------------------------------------------------|
G|------------7--7777777---9--9999999---5---5555555-------------------------|
D|5-5555555---7--7777777---9--9999999---5---5555555-------------------------|
A|5-5555555---5--5555555---7--7777777---3---3333333-------------------------|
E|3-3333333-----------------------------------------------------------------|

BRIDGE:

e|--------------------------------------------------------------------------|
B|--------------------------------------------------------------------------|
G|--------------------------------------------------------------------------|
D|---------------------------------------------|--9-------11-------12--|----|
A|2---2-0-3---3-3-2-3-4---4-2--0-3-------------|--9---+---11---+---12--|----|
E|----------3----------------------------------|--7-------9--------10--|----|

===============================================================================

THIS MIGHT NOT BE FULLY CORRECT, BUT I TRIED MY HARDEST, IF YOU GOT ANY PROBS OR 
ABOUT THE TAB PLEASE E-MAIL ME: ElliottKillingbeck@msn.com
Tap to rate this tab
 
# A B C D E F G H I J K L M N O P Q R S T U V W X Y Z