Steriogram - Moving On tab

Im pretty sure this is how you play it. not so sure about the tuning though.
but anyway, here it is.

INTRO-
guitar 1:
|------------------|-----------------|------------------|------------------|
|------------------|-----------------|------------------|------------------|
|--7-7-7-7-7-7-7-7-|-6-6-6-6-4-4-6-6-|--7-7-7-7-7-7-7-7-|--6-6-6-6-4-4-2-2-|
|--5-5-5-5-5-5-5-5-|-4-4-4-4-2-2-4-4-|--5-5-5-5-5-5-5-5-|--4-4-4-4-2-2-0-0-|
|------------------|-----------------|------------------|------------------|
|------------------|-----------------|------------------|------------------|

|------------------|-----------------|------------------|------------------|
|------------------|-----------------|------------------|------------------|
|--2-2-2-2-2-2-----|-----------------|--2-2-4-4-4-4-4-4-|--7-7-6-6-6-6-4-4-|
|--0-0-0-0-0-0-5-5-|-4-4-4-4-4-4-5-5-|--0-0-2-2-2-2-2-2-|--5-5-4-4-4-4-2-2-|
|--------------3-3-|-2-2-2-2-2-2-3-3-|------------------|------------------|
|------------------|-----------------|------------------|------------------|

|------|
|------|
|--2-2-|
|--0-0-|
|------|
|------|

guitar 2 plays this under guitar 1. this part is also the verse and chorus:


|------------------|-----------------|------------------|------------------|
|------------------|-----------------|------------------|------------------|
|------------------|-----------------|------------------|------------------|
|------------------|-4-4-4-4-4-4-4-4-|--5-5-5-5-5-5-5-5-|--7-7-7-7-7-7-7-7-|
|--5-5-5-5-5-5-5-5-|-2-2-2-2-2-2-2-2-|--3-3-3-3-3-3-3-3-|--5-5-5-5-5-5-5-5-|
|--3-3-3-3-3-3-3-3-|-0-0-0-0-0-0-0-0-|------------------|------------------|

SOLO/BRIDGE:


|------------------|-----------------|-----------------|-----------------|
|------------------|-----------------|-----------------|-----------------|
|--7-7-7-6-6-2-2-2-|-4-4-4-4-4-4-4-4-|-------------4-4-|-2-2-2-2-2-2-2-2-|
|--5-5-5-4-4-0-0-0-|-2-2-2-2-2-2-2-2-|-4-4-4-4-4-4-2-2-|-0-0-0-0-0-0-0-0-|X3
|------------------|-----------------|-2-2-2-2-2-2-----|-----------------|
|------------------|-----------------|-----------------|-----------------|

|------------------|-----------------|------------------|------------------|
|------------------|-----------------|------------------|------------------|
|--7-7-7-6-6-2-2-2-|-4-4-4-2-2-------|--4-4-4-2-2-7-7-7-|--6-6-6-6-6-6-6-4-|
|--5-5-5-4-4-0-0-0-|-2-2-2-0-0-4-4-4-|--2-2-2-0-0-5-5-5-|--4-4-4-4-4-4-4-2-|
|------------------|-----------2-2-2-|------------------|------------------|
|------------------|-----------------|------------------|------------------|

|------------------|
|------------------|
|--6-6-6-6-6-6-6-6-|
|--4-4-4-4-4-4-4-4-|
|------------------|
|------------------|

and thats about it. the song structure aint hard to figure out. have fun!
Tap to rate this tab
 
# A B C D E F G H I J K L M N O P Q R S T U V W X Y Z