Song name
# A B C D E F G H I J K L M N O P Q R S T U V W X Y Z

Stratovarius - Elysium tab

e|--------------------------------------------------------------------------6-|
B|------7---6-------------7----6-------------7---6-------------7----6--7p6----|
G|------------6------------------6-----------------6----------------------6---|
D|----8---8-----8-------9---9------9-------8---8-----8-------9---9------------|
A|--6-----------------6------------------6-----------------6------------------|
E|----------------------------------------------------------------------------|

-------------------------------------------------------------------------|
------7---6--------------7----6---------------7-------6-------------4----|
------------6-------------------6-----------6-------6-------------3------|
----8---8-----8--------8---9------9-------9-------6---------1-3-4--------|
--6-----------------6---------------8---9-------8------------------------|
-------------------------------------------------------------------------|
Tap to rate this tab
# A B C D E F G H I J K L M N O P Q R S T U V W X Y Z