Song name
# A B C D E F G H I J K L M N O P Q R S T U V W X Y Z

Suicide Machines - New Girl tab

Band: The Suicide Machines
Song: New Girl

Intro:
e|----------------------------|x4	
B|----------------------------|	
G|--1212--1010-10-------------|
D|--1212--1010-10--10-101010--|	
A|--1010---8-8--8--10-101010--|	
E|------------------8--8-8-8--|

Pre-Chorus:
e|--7-7--5-5--3-3-3-3--|x4	
B|--8-8--6-6--5-5-5-5--|	
G|--7-7--5-5--5-5-5-5--|
D|---------------------|	
A|---------------------|	
E|---------------------|

Verse:
e|--7-7-7-7--3-3-3-3--|x4	
B|--8-8-8-8--5-5-5-5--|	
G|--7-7-7-7--5-5-5-5--|
D|--------------------|	
A|--------------------|	
E|--------------------|

Chorus:
e|----------------------------|x4	
B|----------------------------|	
G|--1212--1010-10-------------|
D|--1212--1010-10--10-101010--|	
A|--1010---8-8--8--10-101010--|	
E|------------------8--8-8-8--|

Verse
Pre-Chorus
Chorus

Bridge:
e|--7-7-7-7--3-3-3-3--7-7-7-7--5-5-5-5--7-7-7-7--3-3-3-3--5-5-5-5--|	
B|--8-8-8-8--5-5-5-5--8-8-8-8--7-7-7-7--8-8-8-8--5-5-5-5--7-7-7-7--|	
G|--7-7-7-7--5-5-5-5--7-7-7-7--7-7-7-7--7-7-7-7--5-5-5-5--7-7-7-7--|
D|-----------------------------------------------------------------|	
A|-----------------------------------------------------------------|	
E|-----------------------------------------------------------------|
	
Verse
Pre-Chorus
Chorus x8

Outro:
e|-----------------------|X4
B|-----------------------|
G|-------------9--9-9-9--|
D|--7-7--99-9--9--9-9-9--|
A|--7-7--99-9--7--7-7-7--|
E|--5-5--77-7------------|

END

Lyrics:

Well I can�t wait to tell you all about her, all about my new girl 
(he can�t wait to tell you about his new girl) 
And I can�t wait for you to hear me shout it, all about my new girl 
(he can�t wait to tell you about his new girl) 
When we were together you tried to break my heart 
Said you always did your best at keeping us apart 
Said now you�re dead and gone and I�ve got a new thing going� 
I can�t wait to see your face when you and your friends show up Listen | Buy 


So I�ve got a - I got a new girl (repeat 4 times) 

Something makes you think that you�re some kinda winner 
Said you wanna get married and cook somebody dinner? 
Said you�re making fun of me �cause I�m young and got no money 
I�ve got no time for school books �cause I got no time to study. 

Well I can�t wait to tell you all about her, all about my new girl 
(he can�t wait to tell you about his new girl) 
And I can�t wait for you to hear me shout it, all about my new girl 
(he can�t wait to tell you about his new girl) 

So I�ve got a - I got a new girl (repeat 4 times) 

Hey! 

You�re the type of girl that any guy would die for 
That�s the way it looks and I�m really glad you think so 
So concerned with friends and your popularity 
That you never even took the time to see the real me 

Well I can�t wait to tell you all about her, all about my new girl 
(he can�t wait to tell you about his new girl) 
And I can�t wait for you to hear me shout it, all about my new girl 
(he can�t wait to tell you about his new girl) 

So I�ve got a - I got a new girl (repeat 4 times) 

He can�t wait to tell you about� (Repeat 4 times) 
This one - 
New girl

Tap to rate this tab
 
# A B C D E F G H I J K L M N O P Q R S T U V W X Y Z