Song name
# A B C D E F G H I J K L M N O P Q R S T U V W X Y Z

System Of A Down - Innervision tab

-=Innervision=-
===============
This song's tuning is drop D; then all strings down one whole step
(C-G-C-F-A-D)


Author/Artist: System Of A Down
Album: Steal this Album
Transcribed by: Benjamin Marschner
Email: Leerebirne@web.de
HP: www.systemofadowntabs.de.vu (if you want the other tabs from ALL Albums)


A
1:------------|
2:------------|
3:------------|
4:-1---1--1---|
5:-1---1--1---|
6:-1---1--1---|


B
pm......................
1:-----------------------|
2:-----------------------|
3:-----------------------|
4:-----------------------|
5:-----------------------|
6:-000-555-333-111-33-11-|


C
pm......................
1:-----------------------|
2:-----------------------|
3:-----------------------|
4:-----------------------|
5:-----------------------|
6:-000-555-777-333-77-55-|


D
1:---------------|
2:-----3-------3-|
3:---0-------0---|
4:-1-------1-----|
5:---------------|
6:---------------|


E
1:-------------------|
2:-------------------|
3:-------------------|
4:-0--5--7--3--7-7-5-|
5:-0--5--7--3--7-7-5-|
6:-0--5--7--3--7-7-5-|


F
1:------------------------------------------|
2:------------------------------------------|
3:------------------------------------------|
4:-1---1---1---1---1--1---1-1-1-1--11111111-|
5:-1---1---1---1---1--1---1-1-1-1--11111111-|
6:-1---1---1---1---1--1---1-1-1-1--11111111-|


G
1:-6-6-6-6-6-6-6-6-|-5-5-5-5-5-5-5-5-|-6-6-6-6-6-6-6-6-|-5-5-5-5-5-5-5-5-|
2:-4-4-4-4-4-4-4-4-|-4-4-4-4-4-4-4-4-|-4-4-4-4-4-4-4-4-|-4-4-4-4-4-4-4-4-|
3:-3-3-3-3-3-3-3-3-|-2-2-2-2-2-2-2-2-|-3-3-3-3-3-3-3-3-|-2-2-2-2-2-2-2-2-|
4:-----------------|-----------------|-----------------|-----------------|
5:-----------------|-----------------|-----------------|-----------------|
6:-----------------|-----------------|-----------------|-----------------|


H
1:-6-6-6-6-6-6-6-6-|-5-5-5-5-5-5-5-5-|-6-6-6-6-6-6-6-6-|-5-5-5-5-5-5-5-5-|
2:-3-3-3-3-3-3-3-3-|-3-3-3-3-3-3-3-3-|-3-3-3-3-3-3-3-3-|-3-3-3-3-3-3-3-3-|
3:-3-3-3-3-3-3-3-3-|-2-2-2-2-2-2-2-2-|-3-3-3-3-3-3-3-3-|-3-3-3-3-3-3-3-3-|
4:-----------------|-----------------|-----------------|-----------------|
5:-----------------|-----------------|-----------------|-----------------|
6:-----------------|-----------------|-----------------|-----------------|


ORDER:
=====

A 4x
B 4x
C 2x
B 2x
C 2x
D
E 2x
A 2x
B 4x
C 2x
B 2x
C 2x
D
E 2x
A 2x
E 2x
A 2x
E 2x
F
E 2x
F
E 2x
F
E 2x
G, H, G, H, G, H, G
B 4x
Tap to rate this tab
 
# A B C D E F G H I J K L M N O P Q R S T U V W X Y Z