Tegan And Sara - The Ocean tab

-------------------------------------------------------------------------------
			     The Ocean - Tegan and Sara
-------------------------------------------------------------------------------
Tabbed by: me
Email: nicoleleibman@yahoo.com

Tuning:eBGDAG
intro + verse
e|0-----------------------------------0------0------0------------------------------|
B|0-----------------------------------0------0------0------------------------------|
G|6--(listen to song for strumming)---7------4------7------------------------------|
D|7-----------------------------------7------5------7------------------------------|
A|5-----------------------------------5------5------5------------------------------|
G|0-----------------------------------7------0------7------------------------------|
( so, it's been so long since...)
e|-2--------3--------0----------------------------------------------------------|
B|-3--------3--------2----------------------------------------------------------|
G|-4--------4--------6----------------------------------------------------------|
D|-4--------5--------7----------------------------------------------------------|
A|-2--------5--------5----------------------------------------------------------|
G|-x--------0--------6----------------------------------------------------------|
 (...with you...) - repeat intro + verse


e-mail me if you have any comments. i would really like to improve the in-between chord 
you can hear very clearly on their home recordings version, which was the one i listened 
while making the tab.
Tap to rate this tab
 
# A B C D E F G H I J K L M N O P Q R S T U V W X Y Z