Song name
# A B C D E F G H I J K L M N O P Q R S T U V W X Y Z

The Answer - Trouble tab

The Answer - Trouble
From "Revival"

Tuning: E B E A B e (or DADGAD with capo on 2)


==INTRO== 

E--3b--0-------0--|-----------------|--3b--0-------0--|-----------------|
B----------3------|-----------------|----------3------|-----------------|
A-----------------|--0---0----------|-----------------|--0---0----------|
E-----------------|--5---5---5p3p0--|-----------------|--5---5---5p3p0--|
B-----------------|-----------------|-----------------|-----------------|
E--0---0---0---0--|--0---0---0------|--0---0---0---0--|--0---0---0------|


E--3b--0-------0--|-----------------|-----------------|----------------||
B----------3------|-----------------|-----------------|----------------||
A-----------------|--0---0----------|-----------------|---------------o||
E-----------------|--5---5---5p3p0--|------0---3---3--|--0------------o||
B-----------------|-----------------|--3--------------|----------------||
E--0---0---0---0--|--0---0---0------|--0---0---0---0--|--0-------------||
                                   *Stop here on 2nd time through

E-----------------|-----------------|-----------------|-----------------|
B-----------------|-----------------|-----------------|-----------------|
A-----------------|-----------------|-----------------|-----------------|
E-----------------|-----------------|-----------------|-----------------|
B--3b--0--10--12--|-5---5---5p3p0---|--3b--0--10--12--|-5---5---5p3p0---|
E--3b--0--10--12--|-5---5---5p3p0---|--3b--0--10--12--|-5---5---5p3p0---|


E-----------------|-----------------|-----------------|-----------------|
B-----------------|-----------------|-----------------|-----------------|
A-----------------|-----------------|-----------------|-----------------|
E-----------------|-----------------|-----------------|-----------------|
B--3b--0--10--12--|-5---5---5p3p0---|-0--3p0--5p0--3--|-0---------------|
E--3b--0--10--12--|-5---5---5p3p0---|-0--3p0--5p0--3--|-0---------------|



==VERSE 1==

E-----------------|-----------------|-----------------|-----------------|
B-----------------|-----------------|-----------------|-----------------|
A-----------------|-----------------|-----------------|-----------------|
E------------0----|-----------------|------------0----|-----------------|
B-----------------|-----------------|-----------------|-----------------|
E--0---0-3p0---0--|-----------------|--0---0-3p0---0--|-----------------|


E--3b--0-------0--|-----------------|--3b--0-------0--|-----------------|
B----------3------|-----------------|----------3------|-----------------|
A-----------------|--0---0----------|-----------------|--0---0----------|
E-----------------|--5---5---5p3p0--|-----------------|--5---5---5p3p0--|
B-----------------|-----------------|-----------------|-----------------|
E--0---0---0---0--|--0---0---0------|--0---0---0---0--|--0---0---0------|


E--3b--0-------0--|-----------------|-----------------|-----------------|
B----------3------|-----------------|-----------------|-----------------|
A-----------------|--0---0----------|-----------------|-----------------|
E-----------------|--5---5---5p3p0--|------0---3---3--|--0--------------|
B-----------------|-----------------|--3--------------|-----------------|
E--0---0---0---0--|--0---0---0------|--0---0---0---0--|--0--------------|



==CHORUS==

              "She's enough to occupy..."
E--0------0-----0-|------0--0--0--0-|--0------0-----0-|------0--0--0--0-|
B--0------0-----0-|------0--0--0--0-|--0------0-----0-|------0--0--0--0-|
A--0------0-----0-|------0--0--0--0-|--2------2-----2-|------2--2--2--2-|
E--2------2-----2-|------2--2--2--2-|--4------4-----4-|------4--4--4--4-|
B--0------0-----0-|------0--0--0--0-|--0------0-----0-|------0--0--0--0-|
E--2---2--2--2--2-|--2---2--2--2--2-|--4---4--4--4--4-|--4---4--4--4--4-|


E--0------0-----0-|------0--0--0--0-|-----------------|-----------------|
B--0------0-----0-|------0--0--0--0-|-----------------|-----------------|
A--4------4-----4-|------4--4--4--4-|-----------------|-----------------|
E--5------5-----5-|------5--5--5--5-|-----------------|-----------------|
B--0------0-----0-|------0--0--0--0-|--/9-------------|--10-------------|
E--5---5--5--5--5-|--5---5--5--5--5-|--/9-------------|--10-------------|

              "I need a high speed..."
E-----------------|-----------------|-----------------|-----------------|
B-----------------|-----------------|-----------------|-----------------|
A-----------------|-----------------|-----------------|-----------------|
E-----------------|-----------------|-----------------|-----------------|
B--3b--0--10--12--|-5---5---5p3p0---|--3b--0--10--12--|-5---5---5p3p0---|
E--3b--0--10--12--|-5---5---5p3p0---|--3b--0--10--12--|-5---5---5p3p0---|


E-----------------|-----------------|-----------------|-----------------|
B-----------------|-----------------|-----------------|-----------------|
A-----------------|-----------------|-----------------|-----------------|
E-----------------|-----------------|-----------------|-----------------|
B--3b--0--10--12--|-5---5---5p3p0---|-0--3p0--5p0--3--|-0---------------|
E--3b--0--10--12--|-5---5---5p3p0---|-0--3p0--5p0--3--|-0---------------|


==VERSE 2==

E-----------------|-----------------|-----------------|-----------------|
B-----------------|-----------------|-----------------|-----------------|
A-----------------|-----------------|-----------------|-----------------|
E------------0----|-----------------|------------0----|-----------------|
B-----------------|-----------------|-----------------|-----------------|
E--0---0-3p0---0--|-----------------|--0---0-3p0---0--|-----------------|


E-----------------|-----------------|-----------------|-----------------|
B-----------------|-----------------|-----------------|-----------------|
A-----------------|-----------------|-----------------|-----------------|
E------------0----|-----------------|-----------------|-----------------|
B-----------------|-----------------|-----------------|-----------------|
E--0---0-3p0---0--|-----------------|--0---0-3p0-5p0--|--3--0-----------|


E--3b--0-------0--|-----------------|--3b--0-------0--|-----------------|
B----------3------|-----------------|----------3------|-----------------|
A-----------------|--0---0----------|-----------------|--0---0----------|
E-----------------|--5---5---5p3p0--|-----------------|--5---5---5p3p0--|
B-----------------|-----------------|-----------------|-----------------|
E--0---0---0---0--|--0---0---0------|--0---0---0---0--|--0---0---0------|


E--3b--0-------0--|-----------------|-----------------|-----------------|
B----------3------|-----------------|-----------------|-----------------|
A-----------------|--0---0----------|-----------------|-----------------|
E-----------------|--5---5---5p3p0--|------0---3---3--|--0--------------|
B-----------------|-----------------|--3--------------|-----------------|
E--0---0---0---0--|--0---0---0------|--0---0---0---0--|--0--------------|


==CHORUS 2==


x1              "I got trouble..."
E--0------0-----0-|------0--0--0--0-|--0------0-----0-|------0--0--0--0-|
B--0------0-----0-|------0--0--0--0-|--0------0-----0-|------0--0--0--0-|
A--0------0-----0-|------0--0--0--0-|--2------2-----2-|------2--2--2--2-|
E--2------2-----2-|------2--2--2--2-|--4------4-----4-|------4--4--4--4-|
B--0------0-----0-|------0--0--0--0-|--0------0-----0-|------0--0--0--0-|
E--2---2--2--2--2-|--2---2--2--2--2-|--4---4--4--4--4-|--4---4--4--4--4-|


E--0------0-----0-|------0--0--0--0-|-----------------|-----------------|
B--0------0-----0-|------0--0--0--0-|-----------------|-----------------|
A--4------4-----4-|------4--4--4--4-|-----------------|-----------------|
E--5------5-----5-|------5--5--5--5-|-----------------|-----------------|
B--0------0-----0-|------0--0--0--0-|--/9-------------|--10-------------|
E--5---5--5--5--5-|--5---5--5--5--5-|--/9-------------|--10-------------|


x2              "I need a high speed..." 
E-----------------|-----------------|-----------------|-----------------|
B-----------------|-----------------|-----------------|-----------------|
A-----------------|-----------------|-----------------|-----------------|
E-----------------|-----------------|-----------------|-----------------|
B--3b--0--10--12--|-5---5---5p3p0---|--3b--0--10--12--|-5---5---5p3p0---|
E--3b--0--10--12--|-5---5---5p3p0---|--3b--0--10--12--|-5---5---5p3p0---|


E-----------------|-----------------|-----------------|-----------------|
B-----------------|-----------------|-----------------|-----------------|
A-----------------|-----------------|-----------------|-----------------|
E-----------------|-----------------|-----------------|-----------------|
B--3b--0--10--12--|-5---5---5p3p0---|-0--3p0--5p0--3--|-0---------------|
E--3b--0--10--12--|-5---5---5p3p0---|-0--3p0--5p0--3--|-0---------------|


*Played over the main chorus riff on 2nd time through
E-----------------|-----------------|-----------------|-----------------|
B-----------------|-----------------|-----------------|-----------------|
A-----------------|-----------------|-----------------|-----------------|
E--3b---0-----0---|-----------------|--3b---0-----0---|-----------------|
B----------3------|-----------------|----------3------|-----------------|
E-----------------|-----------------|-----------------|-----------------|


==SOLO==
*In live version, there appears to be no tuning change, but it is far 
easier to play in standard. 

E-----------------------------------|-----------------------------------|
B--15-------------------------------|-----------------------------------|
G--14b16-~~~~~~~~~~~~~--------------|------12----12-----12-14b16~~~~~~--|
D--------------------------12----12-|-14~~----14----14------------------|
A---------------------/14-----14----|-----------------------------------|
E-----------------------------------|-----------------------------------|


E/15-15-15-15-15-15-15-15-15-12--12-|-12--12--15p12--12---16p12--12-----|
B-----------------------------------|--------------15----------15-------|
G/15-15-15-15-15-15-15-15-15-12--12-|-12--------------------------------|
D-----------------------------------|-----------------------------------|
A-----------------------------------|-----------------------------------|
E-----------------------------------|-----------------------------------|


E-12h15p12-15p12---12---------------|-----------------------------------|
B---------------15---15p12-15p12----|-----------------------------------|
G-------------------------------14--|-14b16--14---12---14---14-12~~~~~--|
D-----------------------------------|---------------14---14-------------|
A-----------------------------------|-----------------------------------|
E-----------------------------------|-----------------------------------|


E-----------------------------------|-----------------------------------|
B-----------------------------------|-----------------------------------|
G-------12-----11----9-----7--7~~~~~~~~~~~~~~~~~~~~~~~~~~~~~~~----------|
D---/14-----12-----9---9------------|-----------------------------------|
A-----------------------------------|-----------------------------------|
E-----------------------------------|-----------------------------------|


E-----------------------------------|-----------------------------------|
B-----------------------------------|-----------------------------------|
G-----------------------------------|-----------------------------------|
D---------5----------5--------------|-----------------------12h14-------|
A--5b--7-----7p5--7-----7~~~~~~-----|-------12h14-----12h14-------------|
E-----------------------------------|-12h15-----------------------------|


E-----------------------------------|-----------------------------------|
B-----------------------------------|-----------------------------------|
G--14b16--14-12-14-12-14-14b16~~~~~~~~~~~~~~~~~~~~~~~~~~~~--------------|
D-----------------------------------|-----------------------------------|
A-----------------------------------|-----------------------------------|
E-----------------------------------|-----------------------------------|

*Played over end of bridge 
E-----------------------------------|-----------------------------------|
B---4------7------10----------------|-----------------------------------|
G---6b8----9b11---12b14-------------|-----------------------------------|
D-----------------------------------|-----------------------------------|
A-----------------------------------|-----------------------------------|
E-----------------------------------|-----------------------------------|


==BRIDGE SECTION==

"How many times..."
E--0------0-----0-|------0--0--0--0-|--0------0-----0-|------0--0--0--0-|
B--0------0-----0-|------0--0--0--0-|--0------0-----0-|------0--0--0--0-|
A--0------0-----0-|------0--0--0--0-|--2------2-----2-|------2--2--2--2-|
E--2------2-----2-|------2--2--2--2-|--4------4-----4-|------4--4--4--4-|
B--0------0-----0-|------0--0--0--0-|--0------0-----0-|------0--0--0--0-|
E--2---2--2--2--2-|--2---2--2--2--2-|--4---4--4--4--4-|--4---4--4--4--4-|


"...standing in the door, I'm..."
E--0------0-----0-|------0--0--0--0-|--0------0-----0-|------0--0--0--0-|
B--3------3-----3-|------3--3--3--3-|--0------0-----0-|------0--0--0--0-|
A--0------0-----0-|------0--0--0--0-|--4------4-----4-|------4--4--4--4-|
E--0------0-----0-|------0--0--0--0-|--5------5-----5-|------5--5--5--5-|
B--3---3--3--3--3-|--3---3--3--3--3-|--0------0-----0-|------0--0--0--0-|
E-----------------|-----------------|--5---5--5--5--5-|--5---5--5--5--5-|


"How many times..."
E--0------0-----0-|------0--0--0--0-|--0------0-----0-|------0--0--0--0-|
B--0------0-----0-|------0--0--0--0-|--0------0-----0-|------0--0--0--0-|
A--0------0-----0-|------0--0--0--0-|--0------0-----0-|------0--0--0--0-|
E--8------8-----8-|--8---8--8--8--8-|--7------7-----7-|------7--7--7--7-|
B--0------0-----0-|------0--0--0--0-|--0------0-----0-|------0--0--0--0-|
E--8---8--8--8--8-|--8---8--8--8--8-|--7---7--7--7--7-|--7---7--7--7--7-|


==CHORUS 3==

x2              "I need a high speed..." 
E-----------------|-----------------|-----------------|-----------------|
B-----------------|-----------------|-----------------|-----------------|
A-----------------|-----------------|-----------------|-----------------|
E-----------------|-----------------|-----------------|-----------------|
B--3b--0--10--12--|-5---5---5p3p0---|--3b--0--10--12--|-5---5---5p3p0---|
E--3b--0--10--12--|-5---5---5p3p0---|--3b--0--10--12--|-5---5---5p3p0---|


E-----------------|-----------------|-----------------|-----------------|
B-----------------|-----------------|-----------------|-----------------|
A-----------------|-----------------|-----------------|-----------------|
E-----------------|-----------------|-----------------|-----------------|
B--3b--0--10--12--|-5---5---5p3p0---|-0--3p0--5p0--3--|-0---------------|
E--3b--0--10--12--|-5---5---5p3p0---|-0--3p0--5p0--3--|-0---------------|


*Played over main chorus riff
E-----------------|-----------------|-----------------|-----------------|
B-----------------|-----------------|-----------------|-----------------|
A-----------------|-----------------|-----------------|-----------------|
E--3b---0-----0---|-----------------|--3b---0-----0---|-----------------|
B----------3------|-----------------|----------3------|-----------------|
E-----------------|-----------------|-----------------|-----------------|


==OUTRO==

*Repeat intro 1x
Tap to rate this tab
 
# A B C D E F G H I J K L M N O P Q R S T U V W X Y Z