Song name
# A B C D E F G H I J K L M N O P Q R S T U V W X Y Z

The Answer - Under The Sky tab

Under The Sky
The Answer

Tabbed by Ryan.C

This is the first song of the rise album. Its easy to play but just remember to keep it 
and fuzzy, and its in dropped D
As always you can send your suggestions to chhang7@hotmail.com

Intro
e [---------------------------------------------]
B [-12b--12--10-10------------------------------]
G [-12b--12--10-10--------------------10--------]
D [----------------12-10-12--12-10-12-----------]
A [---------------------------------------------]
D [---------------------------------------------]

e [---------------------------------------------]
B [-12b--12--10-10------------------------------]
G [-12b--12--10-10------------------------------]
D [-----------------12-10-----------------------]
A [-----------------------12-10-8---------------]
D [-------------------------------10------------]

e [---------------------------------------------]
B [-12b--12--10-10--------10--10--10--10--------]
G [-12b--12--10-10--------10b-10b-10b-10b-------]
D [-----------------12p10-----------------12----]
A [---------------------------------------------]
D [---------------------------------------------]

e [----10-----10----10-----10---16b-18-16b------]
B [----10-----10----10-----10-------------------]
G [-12b---12b----12b---12b----------------------]
D [---------------------------------------------]
A [---------------------------------------------]
D [---------------------------------------------]

verse
e [---------------------------------------------]
B [---------------------------------------------](x3)
G [-----------7-7--------------7-7-5------------]
D [-----------7-7--------------7-7-5------------]
A [-0-0-3-0---5-5-3-0--0-3-0---5-5-3------------]
D [-0-0-3-0-------3-0--0-3-0--------------------]

e [---------------------------------------------]
B [---------------------------------------------]
G [-----------7-7--------------10-10-5----------]
D [-----------7-7--------------10-10-5----------]
A [-0-0-3-0---5-5-3-0--0-3-0---8--8--3----------]
D [-0-0-3-0-------3-0--0-3-0--------------------]

e [---------------------------------------------]
B [---------------------------------------------]slightly muted
G [---------------------------------------------](x4)
D [---------------------------------------------]
A [-----------5-5-------------5-5-3-------------]
D [-0-0-3-0-------3-0--0-3-0--------------------]

e [---------------------------------------------]
B [---------------------------------------------](x4)
G [-----------7-7--------------7-7-5------------]
D [-----------7-7--------------7-7-5------------]
A [-0-0-3-0---5-5-3-0--0-3-0---5-5-3------------]
D [-0-0-3-0-------3-0--0-3-0--------------------]


Chorus

e [---------------------------------------------]
B [---------------------------------------------]
G [-7--5------------7-5-------------------------]
D [-7--5------------7-5-------------------------]
A [-5--3--5--7--3---5-3-5-0-5-0-5-0-5-0---------]
D [-------5--7--3-------5-0-5-0-5-0-5-0---------]

2nd verse

e [---------------------------------------------]
B [---------------------------------------------]
G [-----------7-7--------------7-7-5------------]
D [-----------7-7--------------7-7-5------------]
A [-0-0-3-0---5-5-3-0--0-3-0---5-5-3------------]
D [-0-0-3-0-------3-0--0-3-0--------------------]

e [-----------------------------------------------------]
B [-----------------------------------------------------]
G [-----------7-7--------------7-7-5--------------------]
D [-----------7-7--------------7-7-5---5b-5p3h5-5-3-----]
A [-0-0-3-0---5-5-3-0--0-3-0---5-5-3----------------5---]
D [-0-0-3-0-------3-0--0-3-0----------------------------]

e [---------------------------------------------]
B [---------------------------------------------]slightly muted
G [---------------------------------------------](x4)
D [---------------------------------------------]
A [-----------5-5-------------5-5-3-------------]
D [-0-0-3-0-------3-0--0-3-0--------------------]

e [---------------------------------------------]
B [---------------------------------------------](x4)
G [-----------7-7--------------7-7-5------------]
D [-----------7-7--------------7-7-5------------]
A [-0-0-3-0---5-5-3-0--0-3-0---5-5-3------------]
D [-0-0-3-0-------3-0--0-3-0--------------------]


Chorus


e [---------------------------------------------]
B [---------------------------------------------]
G [-7--5------------7-5-------------------------]
D [-7--5------------7-5-------------------------]
A [-5--3--5--7--3---5-3-5-0-5-0-5-0-5-0---------]
D [-------5--7--3-------5-0-5-0-5-0-5-0---------]


Solo

e [---------------------------------------------------------]
B [---------------------------------------------------------]
G [--10-9-12-9--10-9--------------10-9-12-9--/19-19-19-19---]
D [------------------5-3------------------------------------]
A [----------------------5-3--------------------------------]
D [--------------------------5-0----------------------------]

e [------------------------------------------------]
B [----13--------------------------------12-15/17--]
G [12b----12b-------------------12h14h15-----------]
D [-----------15b-12/10---12/14--------------------]
A [------------------------------------------------]
D [------------------------------------------------]

e [------------------------------17-17-17-17-17b--]
B [-17bp15----17bp15----17bp15--------------------]
G [--------17-------17--------17------------------]
D [-----------------------------------------------]
A [-----------------------------------------------]
D [-----------------------------------------------]


e [--------------------------------18bv----------------------]
B [-17b-17-15--15----15-15---15-17------18p17p15h17-17b-15---]
G [---------------17------17---------------------------------]
D [----------------------------------------------------------]
A [----------------------------------------------------------]
D [----------------------------------------------------------]

e [------------------------------------------------]
B [-17b-17-15--17b-17-15--17b-17-15--17b-17-15-16b-]
G [------------------------------------------------]
D [------------------------------------------------]
A [------------------------------------------------]
D [------------------------------------------------]

e [---------------------------------------------]
B [------------------------14b------------------]
G [-/16h17p16h17p16h17p16-----------------------]
D [---------------------------------------------]
A [---------------------------------------------]
D [---------------------------------------------]


verse

e [---------------------------------------------]
B [---------------------------------------------](x4)
G [-----------7-7--------------7-7-5------------]
D [-----------7-7--------------7-7-5------------]
A [-0-0-3-0---5-5-3-0--0-3-0---5-5-3------------]
D [-0-0-3-0-------3-0--0-3-0--------------------]


Chorus

e [---------------------------------------------]
B [---------------------------------------------]
G [-7--5------------7-5-------------------------]
D [-7--5------------7-5-------------------------]
A [-5--3--5--7--3---5-3-5-0-5-0-5-0-5-0---------]
D [-------5--7--3-------5-0-5-0-5-0-5-0---------]


ending

e [-----------------------------------------------]
B [-----------------------------------------------]
G [----------------------------------{or}--7b-7b--]
D [----------------------------------------7b-7b--]
A [-5-3-0-5-3-0-5-3-0-5-3-0--12b-12b--------------]
D [-5-3-0-5-3-0-5-3-0-5-3-0--12b-12b--------------]


Tap to rate this tab
# A B C D E F G H I J K L M N O P Q R S T U V W X Y Z