Song name
# A B C D E F G H I J K L M N O P Q R S T U V W X Y Z

The Answer - Tonight tab

Artist: The Answer
Track: Tonight
Album: Everyday Demons


(Standard tuning)
Intro:


         Asus                   C                 G
E||------------------  ||------------------  ||---3---|   I
B||-------------3----  ||--------------3---  ||---3---|   N
G||------2-----------  ||--------0---------  ||---0---|   T
D||----2----2--------  ||-----2-----2------  ||---0---|   R
A||--0---------------  ||--3---------------  ||---2---|   0
E||------------------  ||------------------  ||---3---|


         Asus        G
E||------------------3--  ||-----------------|    I
B||-----------3------3--  ||-----------------|    N
G||------2-------2---0--  ||--2b4--0---------|    T
D||----2----2--------0--  ||---------2p0-----|    R
A||--0---------------2--  ||-----------------|    O
E||------------------3--  ||--------------3--|


Fig 1.1
||-----------------|
||-----------------|
||--2b4--0---------|
||---------2p0-----|
||-----------------|
||--------------3--|


Fig 1.2

     Asus     C        G
E||---0-------3--------3-----|
B||---3-------5--------3-----|
G||---2-------5--------0-----|
D||---2-------5--------0-----|
A||---0-------3--------2-----|
E||---x-------3--------3-----|

Fig 1.3

     G5        A5      C5          C5
E||--x--x-----x--x-----x--x--x--x---x--x--x--x-|
B||--x--x-----x--x-----x--x--x--x---x--x--x--x-|
G||--x--x-----x--x-----5--5--7--5---5--5--7--5-|
D||--5--5-----7--7-----5--5--7--5---5--5--7--5-|
A||--5--5-----7--7-----3--3--3--3---3--3--3--3-|
E||--3--3-----5--5-----x--x--x--x---x--x--x--x-|


Fig 1.4

E||--3---|
B||--3---|
G||--2---|
D||--2---|
A||--0---|
E||------|


Rythmm: G5  G5  E  C  G5  G5  E C G C (Listen for timing)

Fig 1.2
Today is the day we're gonna leave all the problems and just get back up

Fig 1.2
So forget them you dont need them Leave it alone

Fig 1.3
Well the good...........

Fig 1.3
I tell ya i can never go wrong

Fig 1.3 (end with D-bar chord)
There's a stone coming our way but no not today
     D
Not todayyyyy

{
Chorus:
Fig 1.4
Tonight's the night you can make it x 3
Your alright right with me
}

Fig 1.3 (end with D)


Fig 1.2
You asked for silver and i gave you gold im asking nothing from you

Fig 1.2
If these people had knew what we knew then their feelin' it too

Fig 1.3
Time's passing us by

Fig 1.3
But i've never risen so high

Fig 1.3(end with D)
The day's moving so fast so we gotta make it last


{
Chorus:
Fig 1.4
Tonight's the night you can make it x 3
Your alright right with me
}


Rythmm(for solo): G5  G5  E  C  G5  G5  E C G C (Listen for timing)

Ooohh i would save you from it all if i could
Yes i would, Oooohhhhh na na na na na


{
Chorus:
Fig 1.4
Tonight's the night you can make it x 3
Your alright right with me
}
Tap to rate this tab
# A B C D E F G H I J K L M N O P Q R S T U V W X Y Z