Song name
# A B C D E F G H I J K L M N O P Q R S T U V W X Y Z

The Answer - Tornado tab

Tornado - The Answer
From "Revival"

Tuning:  Open G, 1/2 step down (Db Gb Db Gb Bb Db)


=====
Intro
=====
D-----------------|-----------------|-----------------|-----------------|
B-----------------|-----------------|-----------------|-----------------|
G--------0--------|-----------------|--------0--------|-----------------|
D------7----------|-----------------|------7----------|-----------------| x2
G-7h10------------|-----------------|-7h10------------|-----------------|
D-----------------|-----------------|-----------------|-----------------|


D-----------------|-----------------|
B-----------------|-----------------|
G--------0--------|--------0--------|
D------7----------|------7----------|
G-7h10------------|-7h10------------|
D-----------------|-----------------|


=====
Verse
=====
D-----------------|-----------------|-----------------|-----------------|
B---7---7--7----5-|--5-----5---5----|-----------------|-----------------|
G---7---7--7----5-|--5-----5---5----|--------0--------|--------0--------|
D---7---7--7----5-|--5-----5---5----|------7----------|------7----------| x2
G---7---7--7----5-|--5-----5---5----|-7h10------------|-7h10------------|
D---0---0---------|-----------------|-----------------|-----------------|


D-----------------|-----------------|-----------------|-----------------|
B---7---7--7----5-|--5-----5---5----|/10---10-10---5--|-----5----5--5---|
G---7---7--7----5-|--5-----5---5----|/10---10-10---5--|-----5----5--5---|
D---7---7--7----5-|--5-----5---5----|/10---10-10---5--|-----5----5--5---|
G---7---7--7----5-|--5-----5---5----|/10---10-10---5--|-----5----5--5---|
D---0---0---------|-----------------|-----------------|-----------------|


D-----------------|-----------------|-----------------|-----------------|
B-3---3---3---3---|-3---3---3---3---|/10---10-10---5--|-----------------|
G-3---3---3---3---|-3---3---3---3---|/10---10-10---5--|-----------------|
D-3---3---3---3---|-3---3---3---3---|/10---10-10---5--|-----------------|
G-3---3---3---3---|-3---3---3---3---|/10---10-10---5--|-----------------|
D-----------------|-----------------|-----------------|-----------------|


=====
Chorus
=====
D-----------------|-----------------|-----------------|-----------------|
B-----------------|-----------------|-----------------|-----------------|
G-----------------|-----------------|-----------------|-----------------| 
D---3--5--5-------|--8b--5--8b--5---|--3----2----2h3--|--------5~~~~----| x4
G---0--0--0---0---|------0------0---|-----0----0------|-3b--0-----------|
D-----------------|-----------------|-----------------|-----------------|


=====
Bridge to solo
=====
D-----------------|-----------------|-----------------|-----------------|
B/10---10-10---5--|-----5----5--5---|-----------------|-----------------|
G/10---10-10---5--|-----5----5--5---|-3p0-------------|-----------------|
D/10---10-10---5--|-----5----5--5---|-----3p0---------|-----------------|
G/10---10-10---5--|-----5----5--5---|---------3p0--3b-|--0--3b--0--3----|
D-----------------|-----------------|-----------------|-----------------|


D-----------------|-----------------|-----------------|-----------------|
B/10---10-10---5--|-----5----5--5---|-----------------|-----------------|
G/10---10-10---5--|-----5----5--5---|-3p0---0-0---5p0-|--0-0------------|
D/10---10-10---5--|-----5----5--5---|-3p0---0-0---5p0-|--0-0---------0--|
G/10---10-10---5--|-----5----5--5---|-3p0---0-0---5p0-|--0-0---3-4-5----|
D-----------------|-----------------|-----------------|-----------------|


D-----------------|-----------------|-----------------|-----------------|
B/10---10-10---5--|-----5----5--5---|-----------------|-----------------|
G/10---10-10---5--|-----5----5--5---|-3p0-------------|-----------------|
D/10---10-10---5--|-----5----5--5---|-----3p0---------|-----------------|
G/10---10-10---5--|-----5----5--5---|---------3p0--3b-|--0--3b--0--3----|
D-----------------|-----------------|-----------------|-----------------|


D-----------------|-----------------|
B/10---10-10---5--|-----5----5--5---|
G/10---10-10---5--|-----5----5--5---|
D/10---10-10---5--|-----5----5--5---|
G/10---10-10---5--|-----5----5--5---|
D-----------------|-----------------|


*Repeat next section x2
D-----------------|-----------------|-----------------|-----------------|
B-3-3-3-3-3-3-3-3-|-3-3-3-3-3-3-3-3-|-7-7-7-7-7-7-7-7-|-7-7-7-7-7-7-7-7-|
G-3-3-3-3-3-3-3-3-|-3-3-3-3-3-3-3-3-|-7-7-7-7-7-7-7-7-|-7-7-7-7-7-7-7-7-|
D-3-3-3-3-3-3-3-3-|-3-3-3-3-3-3-3-3-|-7-7-7-7-7-7-7-7-|-7-7-7-7-7-7-7-7-|
G-3-3-3-3-3-3-3-3-|-3-3-3-3-3-3-3-3-|-7-7-7-7-7-7-7-7-|-7-7-7-7-7-7-7-7-|  
D-----------------|-----------------|-0-0-0-0-0-0-0-0-|-0-0-0-0-0-0-0-0-|  
                                                                           
                                                                           
D-----------------|-----------------|-----------------|-----------------|  
B-5-5-5-5-5-5-5-5-|-5-5-5-5-5-5-5-5-|-5-5-5-5-5-5-5-5-|-5-5-5-5-5-5-5-5-|  
G-5-5-5-5-5-5-5-5-|-5-5-5-5-5-5-5-5-|-5-5-5-5-5-5-5-5-|-5-5-5-5-5-5-5-5-|
D-5-5-5-5-5-5-5-5-|-5-5-5-5-5-5-5-5-|-5-5-5-5-5-5-5-5-|-5-5-5-5-5-5-5-5-| 
G-5-5-5-5-5-5-5-5-|-5-5-5-5-5-5-5-5-|-5-5-5-5-5-5-5-5-|-5-5-5-5-5-5-5-5-|
D-----------------|-----------------|-----------------|-----------------|



=====
Solo
=====
D-----------------|-----------------|-----------------|-----------------|
B-----------------|-----------------|-----------------|-----------------|
G--17b19----------|---17b19tr~~~~~~~~~~~~~~~~~~~~~~~~~~~~~~----17b19----|
D-----------------|-----------------|-----------------|-----------------|
G-----------------|-----------------|-----------------|-----------------|
D-----------------|-----------------|-----------------|-----------------|


D-----------------|-----------------|-----------------|-----------------|
B-15-----18--b20--|--18b20~~~~~~~~--|----18p15-----15-|-----------------|
G-----------------|-----------------|----------17-----|-17p15--17b19----|
D-----------------|-----------------|-----------------|-----------------|
G-----------------|-----------------|-----------------|-----------------|
D-----------------|-----------------|-----------------|-----------------|


D-----------------|-----------------|-----------------|-----------------|
B-----------------|-----------------|-----------------|-----------------|
G-17p15-----15----|-17b19r17p15-----|-----------------|-----------------|
D-------17--------|--------------17~~~~~~~~~~~~~~-----|-----------------|
G-----------------|-----------------|-----------------|-----------------|
D-----------------|-----------------|-----------------|-----------------|



=====
Outro
=====

*Repeat chorus, and finish on:
D-----------------|-----------------|-----------------|-----------------|
B--10------5------|---0-------------|-----------------|-----------------|
G--10------5------|---0-------------|-----------------|-----------------|
D--10------5------|---0-------------|-----------------|-----------------|
G--10------5------|---0-------------|-----------------|-----------------|
D-----------------|-----------------|-----------------|-----------------|




Tap to rate this tab
 
# A B C D E F G H I J K L M N O P Q R S T U V W X Y Z