Song name
# A B C D E F G H I J K L M N O P Q R S T U V W X Y Z

The Audition - Smoke And Mirrors tab

Standard tuning, the only tricky parts the intro

intro/first verse:
E|-----------------------------------|
B|------0-------0--------------------|
G|----------------------2------------|
D|----4---4---4---4---0---0-----4-0--|
A|--2-------5-----------------2------|
E|------------------3-------0--------|

prechorus: (palm muted eighths)
E|---------------|
B|---------------|
G|-(0)---2-------|
D|--0----2----2--|
A|--x----0----2--|
E|--3---------0--|

chorus:                guitar 2 end on and hold:
E|--------------------|-----|
B|--------------------|-----|
G|--4----0----2-------|--4--|
D|--4----0----2----2--|--4--|
A|--2----x----0----2--|--2--|
E|-------3---------0--|-----|

intro riff (guitar 1, play through verse)

verse 2 (guitar 2, [brackets - palm muted]):
E|------------------------------------------------------|
B|------------------------------------------------------|
G|--[4]-[4]-4-4---[7]-[7]-7-6-----------2---------------|
D|--[4]-[4]-4-4---[7]-[7]-7-7---[0]-[0]---0--[2-2]-4-0--|
A|--[2]-[2]-2-0---[5]-[5]-5-5----x---x-------[2-2]------|
E|------------------------------[3]-[3]------[0-0]------|

prechorus

chorus

bridge: same chords as prechorus, w/o mute. theres a second guitar part that's barely 
but sounds something like this:
E|----------5-5--|
B|------[5]------|
G|--[4]----------|
D|---------------|
A|---------------|
E|---------------|
i'm not claiming it to be accurate, just it you really want to go there, you have my two cents

chorus (breakdown)
E|----------------------|
B|----------------------|
G|--4-4--7-7--9-9--4-4--|
D|--4-4--7-7--9-9--4-4--|
A|--2-2--5-5--7-7--2-2--|
E|----------------------|
which actually could be something for one of the guitars to be doing behind the other 
if you'd like

end on that B bar chord, over and over
Tap to rate this tab
 
# A B C D E F G H I J K L M N O P Q R S T U V W X Y Z