Guitaretab - guitar tabs
Song name
# A B C D E F G H I J K L M N O P Q R S T U V W X Y Z

The Audition - Los Angeles tab

Artist: The Audition
Song: "Los Angeles"
Album: The Audition
Tabbed By: Shizawn
Tuning: Standard half-step down (eb bb gb db ab Eb)

Great song from the Audizzle...It's all the rhythm guitar parts but it's something 
to get ya goin! RATE RATE RATE!!!

Intro
|--1~---3~---0~------1~---3~---0~------------------------------|
|--1~---3~---1~------1~---3~---1~------------------------------|
|--2~---0~---2~------2~---0~---0~------------------------------|
|--3~---0~---2~------3~---0~---2~------------------------------|
|--3~---2~---0~------3~---2~---3~------------------------------|
|--1~---3~---x-------1~---3~---x-------------------------------|

Verse
|---1------3------0------3--------------------------|
|---1------3------1------3--------------------------|
|---2--x8--0--x8--2--x8--3--x8--------(x4)----------|
|---3------0------2------0--------------------------|
|---3------2------0------2--------------------------|
|---1------3------x------3--------------------------|
[ Tab from: http://www.guitaretab.com/t/the-audition/186377.html ]
Pre-Chorus
|--0~----3~----0~-------0~----0~----3~----------------------|
|--1~----3~----1~-------1~----1~----3~----------------------|
|--2~----0~----0~-------2~----0~----0~----------------------|
|--2~----0~----2~-------2~----2~----0~----------------------|
|--0~----2~----3~-------0~----3~----2~----------------------|
|--x-----3~----x--------x-----x-----3~----------------------|

Chorus
|--1------3------0-----------|-1------3-------0------------------------------|
|--1------3------1-----------|-1------3-------1------------------------------|
|--2--x8--0--x8--2--x16--(x3)|-2--x8--0--x8---0---x16------------------------|
|--3------0------2-----------|-3------0-------2------------------------------|
|--3------2------0-----------|-3------2-------3------------------------------|
|--1------3------x-----------|-1------3-------x------------------------------|

Bridge
|--0------0------0------1----------|--/3---------------|
|--1------3------1------1----------|--/3---------------|
|--0--x8--2--x8--2--x8--2--x8--(x3)|--/0--x8-----------|
|--2------0------2------3----------|--/0---------------|
|--3------0------0------3----------|--/2---------------|
|--x------x------x------1----------|--/3---------------|

Chorus
|--1------3------0-----------|-1------3-------0------------------------------|
|--1------3------1-----------|-1------3-------1------------------------------|
|--2--x8--0--x8--2--x16--(x3)|-2--x8--0--x8---0---x16------------------------|
|--3------0------2-----------|-3------0-------2------------------------------|
|--3------2------0-----------|-3------2-------3------------------------------|
|--1------3------x-----------|-1------3-------x------------------------------|
Related for Los Angeles tab