Song name
# A B C D E F G H I J K L M N O P Q R S T U V W X Y Z

The Beautiful Girls - No Wrong No Right tab

Pretty sure its 100% accurate but yer, its my first tab so it might not be...

By Hodgo_41

1st Verse:

E|-------------------------|
B|-------------------------|
G|-------------------------| X12
D|-------------------------|
A|-5--5--5--5--------------|
E|-------------6--6--5--1--|


Chorus:

E|--------------------------------------------------------------------------|
B|--------------------------------------------------------------------------|
G|-------------------3-3-3-3-3-3-3-3---------------------3-3-3-3-3-3-3-3----|
D|-5-5-5-5-5-5-5-5-0-3-3-3-3-3-3-3-3-0-3-3-3-3-3-3-3-3-0-3-3-3-3-3-3-3-3-0--| X2
A|-5-5-5-5-5-5-5-5-0-1-1-1-1-1-1-1-1-0-3-3-3-3-3-3-3-3-0-1-1-1-1-1-1-1-1-0--|
E|-3-3-3-3-3-3-3-3-0-----------------0-1-1-1-1-1-1-1-1-0-----------------0--|


Then:

E|--------------------------|
B|--------------------------|
G|-------------------3------|
D|-5-5-5-5-5-5-5-5-0-3------| Let it ring out
A|-5-5-5-5-5-5-5-5-0-1------|
E|-3-3-3-3-3-3-3-3-0--------|


2nd Verse:

E|-------------------------------|
B|----------------3---3---3---3--|
G|---7--7--7--7--2---2---2---2---| X8
D|--7--7--7--7-------------------|
A|-5--5--5--5---1---1---0--------|
E|--------------------------1----|


Chorus:

Exactly the same as the first chorus
Tap to rate this tab
# A B C D E F G H I J K L M N O P Q R S T U V W X Y Z