Song name
# A B C D E F G H I J K L M N O P Q R S T U V W X Y Z

The Call - Shayad tab

Help us improve GuitareTab! Take a short survey!
SONG: Shayad
Band: call
album: jilawatan
tabbed by: Hamood ur Rehman
hi guyzz, how it going on the guitar planet?? any way here i am again with my newest 
of the song shayad,
it really worked out....so check it out................
tunning: drop D

INTRO x2
e/-------x---------x----------x------------------------------------/
B/-----x-----------x-------x---------------------------------------/
G/----x-----------x-----------x------------------------------------/
D/---12---12---12----10---10----5---7--8----10----15---14---12-----/
A/--12----12---12----10---10----5---7--8----10----15---14---12-----/
D/--12----12---12----10---10----5---7--8----10----15---14---12-----/
the numbers of the pattern depends upon the kind of pedal drive you're using.....

the part without distortion is quite confusing.........the lyrics are below
e/------------------------------------------------------------------/
B/------------------------------------------------------------------/
G/------------------------------------------------------------------/
D/-------------------------5-----------------------7----5-----------/
A/-------------------4h5--------------------------------------------/
D/------------------------------------------------------------------/
kal ki in batoon main,kiya rakha hay..
e/----------------------------------------------------------------/
B/----------------------------------------------------------------/
G/----------------------------------------------------------------/
D/-------7-7---5-5--------5--3--7--5------------------------------/
A/----------------------------------------------------------------/
D/----------------------------------------------------------------/
sochoo tau kuch bhi nahi,sab khala hay....
e/---------------------------------------------------------------------------/
B/---------------------------------------------------------------------------/
G/-------------7--5--7--5----------------7--5--7--5--------------------------/
D/----3---5----------------7---5---3-----------------7--5--0-----------------/
A/---------------------------------------------------------------------------/
D/---------------------------------------------------------------------------/
agg bhi kuch badla nahi, kal jahan tha abb hoon waheen....
for chorous,use the intro tabbed above..........
thats it....INSHALLAH i'll post the solo soon
any complaints any trouble you face, here it is....hamoodrehman708@hotmail.com ; )
Related for Shayad tab