Song name
# A B C D E F G H I J K L M N O P Q R S T U V W X Y Z

The Chariot - Abandon tab

ABANDON (intro)
The Chariot
Wars and Rumors of Wars
Tune to Drop B (1 and 1/2 steps down, Drop D.)

(elec. w/ light dist.)
E-----------------------------------------------------------------|
B-----------------------------------------------------------------|
G--------------0--------------------------------------------------|
D--------3-----0--2-----------------------------------------------|
A---0----3--------2-----------------------------------------------|
E---0----3--------2-----------------------------------------------|

E-----------------------------------------------------------------|
B-----------------------------------------------------------------|
G--------------0------2--5b---------------------------------------|
D--------3-----0---------5b------------------0--2-3--5-5/7--------|
A---0----3--------/8------------3-5--------------------------0--2-|
E---0----3--------/8---------8\-3-5--7\-2-3------------------0--2-|

E-------------------------|      
B-------------------------|      
G-------------------------|  3x  
D-------------------------|
A--2--5-2---3--6-5--2-2-2-|
E--2--5-2---3--6-5--2-2-2-|

E-------------------------------------|
B-------------------------------------|
G-------------------------------------|
D-------------------------------------|
A--2--5-2---3--6-5--2-2-2-1-1-1-0-0-0-|
E--2--5-2---3--6-5--2-2-2-1-1-1-0-0-0-|

E---------------------------------------------------------------|
B---------------------------------------------------------------|
G---------------------------------------------------------------|
D---------------------------------------------------------------|
A-6-6-6-6-6-6--11-11-11-11-11-11-11-11---2--5-2---3--6-5--2--5-2|
E-6-6-6-6-6-6--11-11-11-11-11-11-11-11---2--5-2---3--6-5--2--5-2|

Thank You!
You should be able to place the parts.
Tap to rate this tab
# A B C D E F G H I J K L M N O P Q R S T U V W X Y Z