Song name
# A B C D E F G H I J K L M N O P Q R S T U V W X Y Z

The Chariot - Evolve tab

Evolve
The Chariot
Wars and Rumors of Wars

Riff A
C#-----------------|
G#-----------------|
E------------------|
B------------------| x4
F#--1212-12-66-6-|
B---1212-12-66-6-|

Riff B
C#----------------------------------|
G#----------------------------------|
E-----------------------------------|
B-----------------------------------| x4
F#--5-5-5-6-6-6-7-7-6-6-6-7-7-7-8-8-|
B-----------------------------------|

Riff A x4
Riff B x2

Breakdown Riff
C#--------------------------|
G#--------------------------|
E---------------------------|
B---------------------------|
F#--0-2-3-0-3-4-0-2-3-0-0-0-|
B---0-2-3-0-3-4-0-2-3-0-0-0-|

Crazy Riff
C#-----------|
G#-----------|
E---8b-------|
B---8b-------| x9
F#-----7-6-7-|
B------7-6-7-|

Riff B x2
Riff A x1
Riff B x1
Riff A x1
Riff B x1/2
Riff A x1

Random Riff
C#------------------|
G#---At-Random------|
E-------------------|
B---5/6/7/8/9/10/11-|
F#------------------|
B-------------------|

Riff A x4
Riff B x2

Mid-Outro Riff
C#--17-17-17-17---17-17-17-17-----|
G#--x--x--x--x----x--x--x--x------|
E---15-15-15-15---15-15-15-15-----|
B---------------------------------|
F#--------------0-------------0-0-|
B---------------0-------------0-0-|

Outro
C#------17-------17-------17-|
G#---------------------------|
E---15-------15-------15-----|
B----------------------------| It just goes on
F#-----------------------0---| like this. It's
B------------------Gtr-2-0---| easy to figure out.

I'm out. Thanks!
Tap to rate this tab
 
# A B C D E F G H I J K L M N O P Q R S T U V W X Y Z