Song name
# A B C D E F G H I J K L M N O P Q R S T U V W X Y Z

The Chariot - Back To Back tab

-------------------------------------------------------------------------------
			     
Back To Back - The Chariot
-------------------------------------------------------------------------------
Tabbed by:razor132	
Email:ricky_thomas19@yahoo.com
Tuning: Dropped C : CGCFAD


(0:00-0:20)
E  :-------------------------|-------------------------|
B  :12-12-12-12-12-12--------|12-12-12-12-12-12--------|
G  :15-15-15-15-15-15--------|15-15-15-15-15-15--------|
D  :-------------------------|-------------------------|
A  :-------------------------|-------------------------|
E  :-------------------------|-------------------------|

E  :-------------------------|-------------------------|
B  :12-12-12-12-12-12--------|12-12-12-12-12-12--------|
G  :15-15-15-15-15-15--------|15-15-15-15-15-15--------|
D  :-------------------------|-------------------------|
A  :-------------------------|-------------------------|
E  :-------------------------|-------------------------|


(0:21-0:52)
E  :----------------|-------------------------|----------------|
B  :----------------|12-12-12-12-12-----------|----------------|
G  :----------------|15-15-15-15-15-----------|----------------|
D  :----------------|-------------------------|----------------|
A  :0-xx--0-xx-0xx--|-------------------------|0-xx--0-xx-0xx--|
E  :0-xx--0-xx-0xx--|-------------------------|0-xx--0-xx-0xx--|

E  :-------------------------|----------------|-------------------------|
B  :12-12-12-12-12-----------|----------------|12-12-12-12-12-----------|
G  :15-15-15-15-15-----------|----------------|15-15-15-15-15-----------|
D  :-------------------------|----------------|-------------------------|
A  :-------------------------|0-xx--0-xx-0xx--|-------------------------|
E  :-------------------------|0-xx--0-xx-0xx--|-------------------------|

E  :----------------|-------------------|----------------|
B  :----------------|12-12--------------|----------------|
G  :----------------|15-15--------------|----------------|
D  :----------------|-------------------|----------------|
A  :0-xx--0-xx-0xx--|-------------------|0-xx--0-xx-0xx--|
E  :0-xx--0-xx-0xx--|-------------------|0-xx--0-xx-0xx--|

E  :-------------------------|
B  :12-12-12-12-12-----------|
G  :15-15-15-15-15-----------|
D  :-------------------------|
A  :-------------------------|
E  :-------------------------|


E  :----------------|-------------------------|----------------|
B  :----------------|-12-12-12-12-12----------|----------------|
G  :----------------|-15-15-15-15-15----------|----------------|
D  :----------------|-------------------------|----------------|
A  :-0-xx--0-xx-0xx-|-------------------------|0-xx--0-xx-0xx--|
E  :-0-xx--0-xx-0xx-|-------------------------|0-xx--0-xx-0xx--|

E  :-------------------------|----------------|
B  :12-12-12-12-12-----------|----------------|
G  :15-15-15-15-15-----------|----------------|
D  :-------------------------|----------------|
A  :-------------------------|0-xx--0-xx-0xx--|
E  :-------------------------|0-xx--0-xx-0xx--|


(0:53-1:33)
E  :-------------------------------|-----------------|
B  :12-12-12-12-12-12-12-12-12-----|-----------------|
G  :15-15-15-15-15-15-15-15-15-----|-----------------|
D  :-------------------------------|-----------------|
A  :-------------------------------|-----6-----------|
E  :---------------------------/15-|6-h8---6-h8-p6-h8|

E  :---------------------|--------------------------|
B  :---------------------|--------------------------|
G  :---------------------|--------------------------|
D  :---------------------|--------------------------|
                        
                    
Tap to rate this tab
# A B C D E F G H I J K L M N O P Q R S T U V W X Y Z