Song name
# A B C D E F G H I J K L M N O P Q R S T U V W X Y Z

The Chariot - Back To Back tab

Back to Back
The Chariot
The Fianc'ee
Drop B

C#--/----------/-|
G#--/----------/-|
E---/----------/-|
B---/-Feedback-/-|
F#--/----------/-|
B---/----------/-|

C#--16-16--16-16-16--|
G#--x--x---x--x--x---|
E---14-14--14-14-14--|
B--------------------| x8 (I Think)
F#-------------------|
B--------------------|

"We Both Know...."
C#---------------------------16-16--16-16-16--|
G#---------------------------x--x---x--x--x---|
E----------------------------14-14--14-14-14--|
B---------------------------------------------| x8
F#--0--x-x---0--x-x---0--x-x------------------|
B---0--x-x---0--x-x---0--x-x------------------|

"Tonight!"
C#-----------------------------------|
G#-----------------------------------|
E------------------------------------|
B------------------------------------|
F#--5-(5)p0--------------------------|
B-----------5p0-7p0-5p0-7p0-5p0-7p0--|

"Be Grace...."
C--------------------------------------------|
G--------------------------------------------|
E--------------------------------------------|
B--------------------------------------------|
F--0--x-x---0--x-x---0-x-x---x-x-x-x-x-x-x-x-|
B--0--x-x---0--x-x---0-x-x---x-x-x-x-x-x-x-x-|

The rest is just feedback. Thank You!
Tap to rate this tab
 
# A B C D E F G H I J K L M N O P Q R S T U V W X Y Z