Guitaretab - guitar tabs
Song name
# A B C D E F G H I J K L M N O P Q R S T U V W X Y Z

The Confession - Dead Man Walking tab

----------------------------------------------------------------------------
	             Dead Man Walking - The Confession
----------------------------------------------------------------------------
Tabbed by:Bryce Clifton
Email:
[ Tab from: http://www.guitaretab.com/t/the-confession/153895.html ]
Tuning:DADGBA
                                                                      +
e|---------------------------------------------------------------------------|
B|------------------8--------------7-----------------------------------------|
G|-------------9--------------9--------7--------------10---------10---9------|
D|--------9-------------9-------------------7--------------10----------------|
A|---7-------------------------------------------9---------------------------|
D|---------------------------------------------------------------------------|
                                                                       +
e|---------------------------------------------------------------------------|
B|------------------8-------------7------------------------------------------|
G|-------------9-------------9-------7---------------------10-12-10-10-9----|
D|--------9-------------9-----------------7-------10-10-10-------------------|
A|---7----------------------------------------9------------------------------|
D|---------------------------------------------------------------------------|
 
e|---------------------------------------------------------------------------|
B|-------------------8------------7------------------------------------------|
G|--------------9-------------9----------------------------------------------|
D|---------9--------------9--------------------------------------------------|
A|----7----------------------------------------------------------------------|
D|---------------------------------------------------------------------------|
                 x   x   x   x   x   x
e|---------------------------------------------------------------------------|
B|---------------------------------------------------------------------------|
G|---------------------------------------------------------------------------|
D|---2---0---2------------------------------0---3-------3---2---3------------|
A|---------------2---2---2---2---2---2-----------1---------------------------|
D|---------------2---2---2---2---2---2---------------------------------------|
         x   x   x   x   x   x       x   x       x   x
e|---------------------------------------------------------------------------|
B|---------------------------------------------------------------------------|
G|---------------------------------------------------------------------------|
D|---------------------------------------------------------------------------|
A|---2---2---2---2---2---2---2---0---0---0---3---3---3-----------------------|
D|---2---2---2---2---2---2---2---0---0---0---3---3---3-----------------------|
                 x   x   x   x   x   x
e|---------------------------------------------------------------------------|
B|---------------------------------------------------------------------------|
G|---------------------------------------------------------------------------|
D|---2---0---2------------------------------0---3-------3---2---3------------|
A|---------------2---2---2---2---2---2--------------1------------------------|
D|---------------2---2---2---2---2---2---------------------------------------|
         x   x   x   x   x   x                                            +
e|---------------------------------------------------------------------------|
B|---------------------------------------------------------------------------|
G|-------------------------------7-9-7-9-7-9-5-7-5-7-5-7-4-5-4-5-4-5-9-11-9--|
D|---------------------------------------------------------------------------|
A|---2---2---2---2---2---2---2-----------------------------------------------|
D|---2---2---2---2---2---2---2-----------------------------------------------|



| /  slide up
| \  slide down
| h  hammer-on
| p  pull-off
| ~  vibrato
| +  pinch harmonic
| x  Mute note
============================================================================
http://www.theconfessionmusic.com/
Related for Dead Man Walking tab