Song name
# A B C D E F G H I J K L M N O P Q R S T U V W X Y Z

The Confession - Jealousy tab

This took me about 4 days to compile and is one of my most accurate tabs! If you 
would like to have me create
a tab of a song you like email me at: Steveoday1@live.com or check out my facebook!!!

.:Steve-o Day:.

Jealousy - The Confession

Tuning:
Both Guitars - Drop C (CGCFAD)

Legend
******
/ - slide up
v - vibrato
~ - let ring
* - palm mute
b - bend
r - return
S - substitute (look to right to see substitute)
 - pinch harmonics

Both Guitars - Intro
D|------------------17------17---17--|
A|--15------18------20b(22)-20---20--|
F|--17b(19)-20b(22)------------------|
C|--------------------(^hold bend^)--|
G|-----------------------------------|
C|-----------------------------------|

Justin Norman - Verse x 4
D|---------------------------------------------|
A|---------------------------------------------|
F|---------------------------------------------|
C|---------------------------------------------|
G|--0---0---------------8/7-7/5----------------|
C|--0-0-0-0-000-0-0-0-0------------------------|
      *   * *** * * * *  
D|---------------------------------------------|
A|---------------------------------------------|
F|---------------------------------------------|
C|--------------------------6-6----------------|  6th fret on C can be substituted
G|--0---0---------8/7--7-7-/S-S----------------|  with 11th fret on G on the "S"
C|--0-0-0-0-0-0-0------------------------------|
      *   * * * *             v

Kevin Fyfe - Verse x 4
D|---------------------------------------------|
A|---------------------------------------------|
F|---------------------------------------------|
C|----------------------7/5-5/3----------------|
G|--0---0--------------------------------------|
C|--0-0-0-0-000-0-0-0-0------------------------|
      *   * *** * * * *  
D|---------------------------------------------|
A|---------------------------------------------|
F|---------------------------------------------|
C|----------------7/5--5-5-/9-9----------------|
G|--0---0--------------------------------------|
C|--0-0-0-0-0-0-0------------------------------|
      *   * * * *             v

Both Guitars - Chorus
D|------------------------------------------------------|
A|------------------------------------------------------|
F|------------------------------------------------------|
C|--7---7---------------7/5-5/3--3---3---3--------------|
G|--5-5-5-5-555-5-5-5-5-5/3-3/1--1-3-1-3-1--3--3-3/7-7--|
C|------------------------------------------3--3-3/7-7--|
      *   * *** * * * *            *   *  
D|------------------------------------------------------|
A|------------------------------------------------------|
F|------------------------------------------------------|
C|--7---7---------------7/5-5/3--3---3---3--3-3-3-5-5-5-|
G|--5-5-5-5-555-5-5-5-5-5/3-3/1--1-3-1-3-1--1-1-1-3-3-3-|
C|------------------------------------------------------|
      *   * *** * * * *            *   *  

Verse x 4

Chorus

(pause) "This is not the end"

Justin Norman - Pre-Solo
D|------------------------------------------------/17--15----13-13--12-12------|
A|--------------------------------------17-13----------------------------------|
F|-/14------14---------14--15-14--------------14-------------------------------|
C|------17-----15---17-----------17--------------------------------------------|
G|-----------------------------------------------------------------------------|
C|-----------------------------------------------------------------------------|
               vv
D|-15-15-13-13--17-17/15-15/13-13-15-15b(17)rp15p13--10---10-12---12-13--------|
A|-----------------------------------------------------11------13--------------|
F|-----------------------------------------------------------------------------|
C|-----------------------------------------------------------------------------|
G|-----------------------------------------------------------------------------|
C|-----------------------------------------------------------------------------|

Kevin Fyfe - Pre-Solo
D|------------------------------------------------------|
A|------------------------------------------------------|
F|------------------------------------------------------|
C|--7---7---------------7/5-5/3--3---3---3--------------|
G|--5-5-5-5-555-5-5-5-5-5/3-3/1--1-3-1-3-1--3--3-3/7-7--|
C|------------------------------------------3--3-3/7-7--|
      *   * *** * * * *            *   *  
D|------------------------------------------------------|
A|------------------------------------------------------|
F|------------------------------------------------------|
C|--7---7---------------7/5-5/3--3---3---3--3-3-3-5-5-5-|
G|--5-5-5-5-555-5-5-5-5-5/3-3/1--1-3-1-3-1--1-1-1-3-3-3-|
C|------------------------------------------------------|
      *   * *** * * * *            *   *  

D|-----------------------------------------------------------------------------|
A|--6--5--6---/13----6--5--6---/13----6--5--6---/13---18-17-15-17-15-----------|
F|-----------------------------------------------------------------------------|
C|-----------------------------------------------------------------------------|
G|-----------------------------------------------------------------------------|
C|-----------------------------------------------------------------------------|
               vv

Justin Norman - Clean
D|-----------------------3--------0-3~-|
A|--5-6--3~------3~----3--3~----2------|
F|-------------3~~----3-3------3-3-----|
C|-----------3~~~----5--------2--------|
G|-------------------------------------|
C|-------------------------------------|

Kevin Fyfe - Clean
D|---------------5~--5-6--3~------3~---|
A|--8-10-6~----6~~--------------5~~----|
F|-----------7~~~-------------6~~~-----|
C|-------------------------------------|
G|-------------------------------------|
C|-------------------------------------|

Justin Norman - Solo
|-----------------------------------------------------------------------------|
|-----------------------------------------------------------------------------|
|-----------------------------------9h10h12--14-15-12--14--10-9---------------|
|--10h12-12---10h12-<12>---10h11h12-------------------------------------------|
|-----------------------------------------------------------------------------|
|-----------------------------------------------------------------------------|
         vv          vv
Justin Norman - Duet
|------------------------------------------------/17--15----13-13--12-12------|
|--------------------------------------17-13----------------------------------|
|-/14------14---------14--15-14--------------14-------------------------------|
|------17-----15---17-----------17--------------------------------------------|
|-----------------------------------------------------------------------------|
|-----------------------------------------------------------------------------|
              vv
D|-15-15-13-13--17-17/15-15/13-13-15-15b(17)rp15p13--10---10-12---12-13-------|
A|-----------------------------------------------------11------13-------------|
F|----------------------------------------------------------------------------|
C|----------------------------------------------------------------------------|
G|----------------------------------------------------------------------------|
C|----------------------------------------------------------------------------|

Kevin Fyfe - Duet
|---------------------------------------5---------/8---6-----5--5---3--3------|
|--------------------------8---------------6----------------------------------|
|-/10---9--10--7----9-10-----10--9------------7-------------------------------|
|-----------------------------------------------------------------------------|
|-----------------------------------------------------------------------------|
|-----------------------------------------------------------------------------|
               v
|--6--6--5--5--13-13-12-12/10-10/12-12b(13)rp11p10--10---10-12---12-13--------|
|-----------------------------------------------------11------13--------------|
|-----------------------------------------------------------------------------|
|-----------------------------------------------------------------------------|
|-----------------------------------------------------------------------------|
|-----------------------------------------------------------------------------|


Justin Norman - Outro
D|-----------------------3--------0-3~-----1~--|
A|--5-6--3~------3~----3--3~----2---------3~~--|
F|-------------3~~----3-3------3-3-------2~~~--|
G|-----------3~~~----5--------2---------0~~~~--|
C|---------------------------------------------|
G|---------------------------------------------|

Taylor Armstrong - Vocals
Justin Norman - Guitar
Kevin Fyfe - Guitar
Matt Pauling - Bass
Jeff Veta - Drums
Tap to rate this tab
# A B C D E F G H I J K L M N O P Q R S T U V W X Y Z