Guitaretab - guitar tabs
Song name
# A B C D E F G H I J K L M N O P Q R S T U V W X Y Z

The Expendables - Die For You tab

-------------------------------------------------------------------------------
			     Die For You - BILLY REDFIELD
-------------------------------------------------------------------------------
Tabbed by:
Email: Billy Redfield  billyredfield@billyredfield.com
www.billyredfield.com 
myspace.com/billyredfield1

Tuning: Standard
   INTRO
e|---------------------------------------------------------------|
B|------------------------------3-----3--------------------------|
G|----7s6---6h4--4s2---0------2---2--2-----0-------REPEAT TWICE--|
D|--4----4-----0----0---------------------0----------------------|
A|-5------5-----5----0-------------------------------------------|
E|-------------------------3------3------3-----------------------|


chorus

Em    F#/D   G

I'd die for you


D    A    G
[ Tab from: http://www.guitaretab.com/t/the-expendables/151349.html ]
March the earth till I fell through


Em    F#/D    g

Yeah I would die for you

D         A           G
Pass this life onto a new


Asus4    A
Yeah I would die for you

But I hope it ain't soon

INTRO

                 D    G
Love breathes through

         D            G
God's hand graced you

              D   G
A dream so sweet

D
One second with you

G
Makes my whole whorld complete

CHORUS

BRIDGE

          Em
And it's always enough

G
your love cuffs

D    A    G
It's all I know

Em
and it's better on top

  G
This love never stops

D     A    G      ASUS A
It's all i know

CHORUS

OUTRO=INTRO

| /  slide up
| \  slide down
| h  hammer-on
| p  pull-off
| ~  vibrato
| +  harmonic
| x  Mute note
===============================================================================
Related for Die For You tab
Advertisement will be closed in 10 seconds