Song name
# A B C D E F G H I J K L M N O P Q R S T U V W X Y Z

The Expendables - Sacrifice tab

-------------------------------------------------------------------------------
			     Sacrifice - The Expendables
-------------------------------------------------------------------------------
Tabbed by: DingleEye
Email: Gsolomon4@yahoo.com

Tuning: Standard


Intro

Part 1(Guitar 1 ,with delay)
e|----------------------------13----------------------------------15--------|
B|----------11-------10-------------------------11-------10-----------------|
G|-12----------------------------------12-----------------------------------|
D|--------------------------------------------------------------------------|
A|--------------------------------------------------------------------------|
E|--------------------------------------------------------------------------|

Tremolo picked
e|----------------------------13----------------------------------15--------|
B|----------11-------10-------------------------11-------10-----------------|
G|-12----------------------------------12-----------------------------------|
D|--------------------------------------------------------------------------|
A|--------------------------------------------------------------------------|
E|--------------------------------------------------------------------------|
                              \/Tremolo comes in
e|----------------------------13----------------15-------\----/----\--------|
B|----------11-------10----------------------------------\----/----\--------|
G|-12----------------------------------------------------\----/----\--------|
D|-------------------------------------------------------\----/----\--------|
A|-------------------------------------------------------\----/----\--------|
E|-------------------------------------------------------\----/----\--------|

Part 2(Guitars 1 and 2)
e|-3-----------------------------------6---6-------------3------------------|
B|-3-----------------------------------8---8-------------4------------------|
G|-3-----------------------------------8---8-------------5------------------|
D|-5-----------------------------------8---8-------------5------------------|
A|-5-----------------------------------6---6-------------3------------------|
E|-3------------------------------------------------------------------------|
 |                                                                          |
e|--------------------------------------------------------------------------|
B|-------11--11-10-11~-----11--11-10-11~-----11--11-10-11~-----11--11-13-10-|
G|--------------------------------------------------------------------------|
D|----12----------------12----------------12----------------12--------------|
A|--------------------------------------------------------------------------|
E|--------------------------------------------------------------------------|

Part 3(Guitars 1-4, clean)
e|---------------------------13---------------------------------------------|
B|-------------------------11--11-10-11-------------------------------------|
G|--------------------------------------------------------------------------|
D|--------------------------------------------------------------------------|
A|--------------------------------------------------------------------------|
E|--------------------------------------------------------------------------|
 |                                                                          |
e|--------------------------------------------------------------------------|
B|-------11--11-10-11~-----11--11-10-11~-----11--11-10-11~-----11--11-13-10-|
G|--------------------------------------------------------------------------|
D|----12----------------12----------------12----------------12--------------|
A|--------------------------------------------------------------------------|
E|--------------------------------------------------------------------------|
 |                                                                          |
e|-3-----------------------------------6-----------------3------------------|
B|-3-----------------------------------8-----------------4------------------|
G|-3-----------------------------------8-----------------5------------------|
D|-5-----------------------------------8-----------------5------------------|
A|-5-----------------------------------6-----------------3------------------|
E|-3------------------------------------------------------------------------|
 |                                                                          |
e|----3--------3--------3--------3--------6--------6--------3--------3------|
B|----3--------3--------3--------3--------8--------8--------4--------4------|
G|----3--------3--------3--------3--------8--------8--------5--------5------|
D|----5--------5--------5--------5--------8--------8--------5--------5------|
A|----5--------5--------5--------5--------6--------6--------3--------3------|
E|----3--------3--------3--------3------------------------------------------|

Part 4(Guitars 2, 3 and 4)
e|---------------------------------------------------------10---------------|
B|-------11--11-10-11~-----11--11-10-11~-----11--11-10-11~----13-11-10------|
G|---------------------------------------------------------------------12\--|
D|----12----------------12----------------12--------------------------------|
A|--------------------------------------------------------------------------|
E|--------------------------------------------------------------------------|
 |                                                                          |
e|-3-----------------------------------6-----------------3------------------|
B|-3-----------------------------------8-----------------4------------------|
G|-3-----------------------------------8-----------------5------------------|
D|-5-----------------------------------8-----------------5------------------|
A|-5-----------------------------------6-----------------3------------------|
E|-3------------------------------------------------------------------------|
 |                                                                          |
e|----3--------3--------3--------3--------6--------6--------3--------3------|
B|----3--------3--------3--------3--------8--------8--------4--------4------|
G|----3--------3--------3--------3--------8--------8--------5--------5------|
D|----5--------5--------5--------5--------8--------8--------5--------5------|
A|----5--------5--------5--------5--------6--------6--------3--------3------|
E|----3--------3--------3--------3------------------------------------------|

Verse 1(Guitars 3 and 4)
e|--------------------------------------------------------------------------|
B|--------------------------------------------------------------------------|
G|--------------------------------------------------------------------------|
D|--------------------------------------------------------------------------|
A|--------------------------------------------------------------------------|
E|--------------------------------------------------------------------------|
 |                                                                          |
e|----3--------3--------3--------3--------6--------6--------3---------------|
B|----3--------3--------3--------3--------8--------8--------4---------------|
G|----3--------3--------3--------3--------8--------8--------5---------------|
D|----5--------5--------5--------5--------8--------8--------5---------------|
A|----5--------5--------5--------5--------6--------6--------3---------------|
E|----3--------3--------3--------3------------------------------------------|

e|-3x----------------------------------6-----------------3------------------|
B|-3x----------------------------------8-----------------4------------------|
G|-3x----------------------------------8-----------------5------------------|
D|-------------------------------------8-----------------5------------------|
A|-------------------------------------6-----------------3------------------|
E|--------------------------------------------------------------------------|
 |                                                                          |
e|--------------------------------------------------------------------------|
B|--------------------------------------------------------------------------|
G|--------------------------------------------------------------------------|
D|--------------------------------------------------------------------------|
A|--------------------------------------------------------------------------|
E|--------------------------------------------------------------------------|

e|-3-----------------------------------6-----------------3------------------|
B|-3-----------------------------------8-----------------4------------------|
G|-3-----------------------------------8-----------------5------------------|
D|-5-----------------------------------8-----------------5------------------|
A|-5-----------------------------------6-----------------3------------------|
E|-3------------------------------------------------------------------------|
 |                                                                          |
e|----3--------3--------3--------3--------6--------6--------3--------3------|
B|----3--------3--------3--------3--------8--------8--------4--------4------|
G|----3--------3--------3--------3--------8--------8--------5--------5------|
D|----5--------5--------5--------5--------8--------8--------5--------5------|
A|----5--------5--------5--------5--------6--------6--------3--------3------|
E|----3--------3--------3--------3------------------------------------------|

e|-3-----------------------------------6-----------------3------------------|
B|-3-----------------------------------8-----------------4------------------|
G|-3-----------------------------------8-----------------5------------------|
D|-5-----------------------------------8-----------------5------------------|
A|-5-----------------------------------6-----------------3------------------|
E|-3------------------------------------------------------------------------|
 |                                                                          |
e|----3--------3--------3--------3--------6--------6--------3--------3------|
B|----3--------3--------3--------3--------8--------8--------4--------4------|
G|----3--------3--------3--------3--------8--------8--------5--------5------|
D|----5--------5--------5--------5--------8--------8--------5--------5------|
A|----5--------5--------5--------5--------6--------6--------3--------3------|
E|----3--------3--------3--------3------------------------------------------|

Chorus (Guitar 3 clean, Guitar 4 with phase shifter) 
e|----6--------6--------1--------1--------6--------6--------5--------5------|
B|----6--------6--------1--------1--------6--------6--------6--------6------|
G|----7--------7--------2--------2--------7--------7--------7--------7------|
D|----8--------8--------3--------3--------8--------8--------7--------7------|
A|----8--------8--------3--------3--------8--------8--------5--------5------|
E|----6--------6--------1--------1--------6--------6------------------------|
 |                                                                          |
e|--x-6--x-x-x-6--x-x-x-1--x-x-x-6--x-x-x-6--x-x-x-6--x-x-x-3--x-x-x-6--x-x-|
B|--x-6--x-x-x-6--x-x-x-1--x-x-x-6--x-x-x-8--x-x-x-8--x-x-x-3--x-x-x-6--x-x-|
G|--x-7--x-x-x-7--x-x-x-2--x-x-x-7--x-x-x-8--x-x-x-8--x-x-x-3--x-x-x-7--x-x-|
D|--x-8--x-x-x-8--x-x-x-3--x-x-x-8--x-x-x-8--x-x-x-8--x-x-x-5--x-x-x-8--x-x-|
A|--x-8--x-x-x-8--x-x-x-3--x-x-x-8--x-x-x-6--x-x-x-6--x-x-x-5--x-x-x-8--x-x-|
E|--x-6--x-x-x-6--x-x-x-1--x-x-x-6--x-x-x----x-x-x----x-x-x-3--x-x-x-6--x-x-|

e|----6--------6--------1--------1--------6--------6--------5---------------|
B|----6--------6--------1--------1--------6--------6--------6---------------|
G|----7--------7--------2--------2--------7--------7--------7---------------|
D|----8--------8--------3--------3--------8--------8--------7---------------|
A|----8--------8--------3--------3--------8--------8--------5---------------|
E|----6--------6--------1--------1--------6--------6------------------------|
 |                                                                          |
e|--x-6--x-x-x-6--x-x-x-1--x-x-x-6--x-x-x-6--x-x-x-6--x-x-x-3--x-x-x-6------|
B|--x-6--x-x-x-6--x-x-x-1--x-x-x-6--x-x-x-8--x-x-x-8--x-x-x-3--x-x-x-6------|
G|--x-7--x-x-x-7--x-x-x-2--x-x-x-7--x-x-x-8--x-x-x-8--x-x-x-3--x-x-x-7------|
D|--x-8--x-x-x-8--x-x-x-3--x-x-x-8--x-x-x-8--x-x-x-8--x-x-x-5--x-x-x-8------|
A|--x-8--x-x-x-8--x-x-x-3--x-x-x-8--x-x-x-6--x-x-x-6--x-x-x-5--x-x-x-8------|
E|--x-6--x-x-x-6--x-x-x-1--x-x-x-6--x-x-x----x-x-x----x-x-x-3--x-x-x-6------|

Interlude(Guitars 2 and 4 clean, Guitar 3 with phase shifter) 
e|--------------------------------------------------------------------------|
B|-------11--11-10-11~-----11--11-10-11~-----11--11-10-11~-----11--11-13-10-|
G|--------------------------------------------------------------------------|
D|----12----------------12----------------12----------------12--------------|
A|--------------------------------------------------------------------------|
E|--------------------------------------------------------------------------|
 |                                                                          |
e|-------------------------------------6-----------------3------------------|
B|-------------------------------------8-----------------4------------------|
G|-------------------------------------8-----------------5------------------|
D|-------------------------------------8-----------------5------------------|
A|-------------------------------------6-----------------3------------------|
E|--------------------------------------------------------------------------|
 |                                                                          |
e|----3--------3--------3--------3--------6--------6--------3--------3------|
B|----3--------3--------3--------3--------8--------8--------4--------4------|
G|----3--------3--------3--------3--------8--------8--------5--------5------|
D|----5--------5--------5--------5--------8--------8--------5--------5------|
A|----5--------5--------5--------5--------6--------6--------3--------3------|
E|----3--------3--------3--------3------------------------------------------|

e|---------------------------------------------------------10---------------|
B|-------11--11-10-11~-----11--11-10-11~-----11--11-10-11~----13-11-10------|
G|---------------------------------------------------------------------12\--|
D|----12----------------12----------------12--------------------------------|
A|--------------------------------------------------------------------------|
E|--------------------------------------------------------------------------|
 |                                                                          |
e|-3-----------------------------------6-----------------3------------------|
B|-3-----------------------------------8-----------------4------------------|
G|-3-----------------------------------8-----------------5------------------|
D|-5-----------------------------------8-----------------5------------------|
A|-5-----------------------------------6-----------------3------------------|
E|-3------------------------------------------------------------------------|
 |                                                                          |
e|----3--------3--------3--------3--------6--------6--------3--------3------|
B|----3--------3--------3--------3--------8--------8--------4--------4------|
G|----3--------3--------3--------3--------8--------8--------5--------5------|
D|----5--------5--------5--------5--------8--------8--------5--------5------|
A|----5--------5--------5--------5--------6--------6--------3--------3------|
E|----3--------3--------3--------3------------------------------------------|

Verse 2(Guitars 3 and 4)
e|--------------------------------------------------------------------------|
B|--------------------------------------------------------------------------|
G|--------------------------------------------------------------------------|
D|--------------------------------------------------------------------------|
A|--------------------------------------------------------------------------|
E|--------------------------------------------------------------------------|
 |                                                                          |
e|----3--------3--------3--------3--------6--------6--------3---------------|
B|----3--------3--------3--------3--------8--------8--------4---------------|
G|----3--------3--------3--------3--------8--------8--------5---------------|
D|----5--------5--------5--------5--------8--------8--------5---------------|
A|----5--------5--------5--------5--------6--------6--------3---------------|
E|----3--------3--------3--------3------------------------------------------|

e|-------------------------------------6------------------------------------|
B|-------------------------------------8------------------------------------|
G|-------------------------------------8------------------------------------|
D|-------------------------------------8------------------------------------|
A|-------------------------------------6------------------------------------|
E|--------------------------------------------------------------------------|
 |                                                                          |
e|----3--------3--------3--------3--------6--------6--------3--------3------|
B|----3--------3--------3--------3--------8--------8--------4--------4------|
G|----3--------3--------3--------3--------8--------8--------5--------5------|
D|----5--------5--------5--------5--------8--------8--------5--------5------|
A|----5--------5--------5--------5--------6--------6--------3--------3------|
E|----3--------3--------3--------3------------------------------------------|

e|-3x-----------------------------------------------------------------------|
B|-3x-----------------------------------------------------------------------|
G|-3x-----------------------------------------------------------------------|
D|--------------------------------------------------------------------------|
A|--------------------------------------------------------------------------|
E|--------------------------------------------------------------------------|
 |                                                                          |
e|----3--------3--------3--------3--------6--------6--------3---------------|
B|----3--------3--------3--------3--------8--------8--------4---------------|
G|----3--------3--------3--------3--------8--------8--------5---------------|
D|----5--------5--------5--------5--------8--------8--------5---------------|
A|----5--------5--------5--------5--------6--------6--------3---------------|
E|----3--------3--------3--------3------------------------------------------|

e|-------------------------------------6------------------------------------|
B|-------------------------------------8------------------------------------|
G|-------------------------------------8------------------------------------|
D|-------------------------------------8------------------------------------|
A|-------------------------------------6------------------------------------|
E|--------------------------------------------------------------------------|
 |                                                                          |
e|----3--------3--------3--------3--------6--------6--------3--------3------|
B|----3--------3--------3--------3--------8--------8--------4--------4------|
G|----3--------3--------3--------3--------8--------8--------5--------5------|
D|----5--------5--------5--------5--------8--------8--------5--------5------|
A|----5--------5--------5--------5--------6--------6--------3--------3------|
E|----3--------3--------3--------3------------------------------------------|

Chorus (Guitar 3 clean, Guitar 4 with phase shifter) 
e|----6--------6--------1--------1--------6--------6--------5--------5------|
B|----6--------6--------1--------1--------6--------6--------6--------6------|
G|----7--------7--------2--------2--------7--------7--------7--------7------|
D|----8--------8--------3--------3--------8--------8--------7--------7------|
A|----8--------8--------3--------3--------8--------8--------5--------5------|
E|----6--------6--------1--------1--------6--------6------------------------|
 |                                                                          |
e|--x-6--x-x-x-6--x-x-x-1--x-x-x-6--x-x-x-6--x-x-x-6--x-x-x-3--x-x-x-6--x-x-|
B|--x-6--x-x-x-6--x-x-x-1--x-x-x-6--x-x-x-8--x-x-x-8--x-x-x-3--x-x-x-6--x-x-|
G|--x-7--x-x-x-7--x-x-x-2--x-x-x-7--x-x-x-8--x-x-x-8--x-x-x-3--x-x-x-7--x-x-|
D|--x-8--x-x-x-8--x-x-x-3--x-x-x-8--x-x-x-8--x-x-x-8--x-x-x-5--x-x-x-8--x-x-|
A|--x-8--x-x-x-8--x-x-x-3--x-x-x-8--x-x-x-6--x-x-x-6--x-x-x-5--x-x-x-8--x-x-|
E|--x-6--x-x-x-6--x-x-x-1--x-x-x-6--x-x-x----x-x-x----x-x-x-3--x-x-x-6--x-x-|

e|----6--------6--------1--------1--------6--------6--------5---------------|
B|----6--------6--------1--------1--------6--------6--------6---------------|
G|----7--------7--------2--------2--------7--------7--------7---------------|
D|----8--------8--------3--------3--------8--------8--------7---------------|
A|----8--------8--------3--------3--------8--------8--------5---------------|
E|----6--------6--------1--------1--------6--------6------------------------|
 |                                                                          |
e|--x-6--x-x-x-6--x-x-x-1--x-x-x-6--x-x-x-6--x-x-x-6--x-x-x-3--x-x-x-6------|
B|--x-6--x-x-x-6--x-x-x-1--x-x-x-6--x-x-x-8--x-x-x-8--x-x-x-3--x-x-x-6------|
G|--x-7--x-x-x-7--x-x-x-2--x-x-x-7--x-x-x-8--x-x-x-8--x-x-x-3--x-x-x-7------|
D|--x-8--x-x-x-8--x-x-x-3--x-x-x-8--x-x-x-8--x-x-x-8--x-x-x-5--x-x-x-8------|
A|--x-8--x-x-x-8--x-x-x-3--x-x-x-8--x-x-x-6--x-x-x-6--x-x-x-5--x-x-x-8------|
E|--x-6--x-x-x-6--x-x-x-1--x-x-x-6--x-x-x----x-x-x----x-x-x-3--x-x-x-6------|

Breakdown

Part 1(Guitar 3 clean, Guitar 4 With phase shifter)
e|-3-----------------------------------6-----------------3------------------|
B|-3-----------------------------------8-----------------4------------------|
G|-3-----------------------------------8-----------------5------------------|
D|-5-----------------------------------8-----------------5------------------|
A|-5-----------------------------------6-----------------3------------------|
E|-3------------------------------------------------------------------------|
 | Hold note >                                                              |
e|-3------------------------------------------------------------------------|
B|-3------------------------------------------------------------------------|
G|-3------------------------------------------------------------------------|
D|-5------------------------------------------------------------------------|
A|-5------------------------------------------------------------------------|
E|-3------------------------------------------------------------------------|

Part 2(Guitars 2 and 3 with distortion, Guitar 4 with phase shifter) 
e|--------------------------------------------------------------------------|
B|--------------------------------------------------------------------------|
G|-------------------------------------8-----------------5------------------|
D|-5-----------------------------------8-----------------5------------------|
A|-5-----------------------------------6-----------------3------------------|
E|-3------------------------------------------------------------------------|
 |                                                                          |
e|--------------------------------------------------------------------------|
B|--------------------------------------------------------------------------|
G|--------------------------------------------------------------------------|
D|-5------------------------------------------------------------------------|
A|-5------------------------------------------------------------------------|
E|-3------------------------------------------------------------------------|
 |                                                                        > |
e|--------------------------------------------------------------------------|
B|--------------------------------------------------------------------------|
G|--------------------------------------------------------------------------|
D|--------------------------------------------------------------------------|
A|--------------------------------------------------------------------------|
E|--------------------------------------------------------------------------|

Riff 1 2x(Guitars 2 and 3 with distortion)
e|--------------------------------------------------------------------------|
B|--------------------------------------------------------------------------|
G|-------------------------------------8-----------------5------------------|
D|-5-----------------------------------8-----------------5------------------|
A|-5-----------------------------------6-----------------3------------------|
E|-3------------------------------------------------------------------------|
 |                                                                          |
e|--------------------------------------------------------------------------|
B|--------------------------------------------------------------------------|
G|-------------------------------------8---8---6h8p6-----5---5--------------|
D|-5---5-------------------------------8---8---------8---5---5--------------|
A|-5---5--3h5p3---3-----5---3h5p3------6---6-------------3---3--------------|
E|-3---3--------6-----3---3-------6-----------------------------------------|

Riff 2 3x(Guitars 2 and 3 with distortion)
e|--------------------------------------------------------------------------|
B|--------------------------------------------------------------------------|
G|-------------------------------------8-----------------5------------------|
D|-5-----------------------------------8-----------------5------------------|
A|-5-----------------------------------6-----------------3------------------|
E|-3------------------------------------------------------------------------|
 |                                                                          |
e|--------------------------------------------------------------------------|
B|--------------------------------------------------------------------------|
G|-------------------------------------8---8-------------5---5--------------|
D|-5---------------5-------------------8---8-------------5---5--------------|
A|-5---------------5-------------------6---6-------------3---3--------------|
E|-3---3--6--3--3--3--------------------------------------------------------| 

Riff 3(Guitars 1, 2 and 3 with distortion)
e|--------------------------------------------------------------------------|
B|--------------------------------------------------------------------------|
G|-------------------------------------8~~~~~~~~~~~~~~~~/10~~~~~~~~~~~~~----|
D|--------------------------------------------------------------------------|
A|--------------------------------------------------------------------------|
E|--------------------------------------------------------------------------|
 |                                                                          |
e|--------------------------------------------------------------------------|
B|--------------------------------------------------------------------------|
G|-------------------------------------8-----------------10-----------------|
D|-5-----------------------------------8-----------------10-----------------|
A|-5-----------------------------------6-----------------8------------------|
E|-3------------------------------------------------------------------------|
 |                                                                          |
e|--------------------------------------------------------------------------|
B|--------------------------------------------------------------------------|
G|-------------------------------------8---8-------------10--10-------------|
D|-5---------------5-------------------8---8-------------10--10-------------|
A|-5---------------5-------------------6---6-------------8---8--------------|
E|-3---3--6--3--3--3--------------------------------------------------------|

Riff 4 (Guitar 1 tremolo picked with delay and distortion)
e|----------------------------13----------------------------------15--------|
B|----------11-------10-------------------------11-------10-----------------|
G|-12----------------------------------12-----------------------------------|
D|--------------------------------------------------------------------------|
A|--------------------------------------------------------------------------|
E|--------------------------------------------------------------------------|

e|----------------------------13-------13----------------15-----------------|
B|----------11-------10-----------------------------------------------------|
G|-12-----------------------------------------------------------------------|
D|--------------------------------------------------------------------------|
A|--------------------------------------------------------------------------|
E|--------------------------------------------------------------------------|
Solo (Guitars 1-3 with distortion)
e|---17--13-----------------------------------------------------------------|
B|-----------15------13--15--15brp13---15----13--15-------------------------|
G|---------------14----------------------------------14(slow bend)----------|
D|--------------------------------------------------------------------------|
A|--------------------------------------------------------------------------|
E|--------------------------------------------------------------------------|
 |                                                                          |
e|--------------------------------------------------------------------------|
B|--------------------------------------------------------------------------|
G|-------------------------------------------------------7------------------|
D|-7-----------------------------------3-----------------7------------------|
A|-7-----------------------------------3-----------------5------------------|
E|-5-----------------------------------1------------------------------------|
 |                                                                          |
e|--------------------------------------------------------------------------|
B|--------------------------------------------------------------------------|
G|--------------------------------------------------------------------------|
D|--------------------------------------------------------------------------|
A|--------------------------------------------------------------------------|
E|--------------------------------------------------------------------------|

e|--------------15~---------------15---------------------17-----------------|
B|---------------------------17--------18brp15--------------17-15-----------|
G|------12--------------------------------------------------------17-17b~---|
D|--------------------------------------------------------------------------|
A|--------------------------------------------------------------------------|
E|--------------------------------------------------------------------------|
 |                                                                          |
e|--------------------------------------------------------------------------|
B|--------------------------------------------------------------------------|
G|-------------------------------------------------------7------------------|
D|-7-----------------------------------3-----------------7------------------|
A|-7-----------------------------------3-----------------5------------------|
E|-5-----------------------------------1------------------------------------|
 |                                                                          |
e|--------------------------------------------------------------------------|
B|--------------------------------------------------------------------------|
G|--------------------------------------------------------------------------|
D|--------------------------------------------------------------------------|
A|--------------------------------------------------------------------------|
E|--------------------------------------------------------------------------|

e|------------15--12----------------------15--------------------------------|
B|-15b------------------15p13h15~---------------18b---------15--------------|
G|-------------------------------------17----17----------17----14~----------|
D|--------------------------------------------------------------------------|
A|--------------------------------------------------------------------------|
E|--------------------------------------------------------------------------|
 |                                                                          |
e|--------------------------------------------------------------------------|
B|--------------------------------------------------------------------------|
G|-------------------------------------------------------7------------------|
D|-7-----------------------------------3-----------------7------------------|
A|-7-----------------------------------3-----------------5------------------|
E|-5-----------------------------------1------------------------------------|
 |                                                                          |
e|--------------------------------------------------------------------------|
B|--------------------------------------------------------------------------|
G|-------------------------------------------------------7-7x---------------|
D|-7-7x--------------------------------3-3x--------------7-7x---------------|
A|-7-7x--------------------------------3-3x--------------5-5x---------------|
E|-5-5x--------------------------------1-1x---------------------------------|

e|--------------------------------------------------------------------------|
B|-----17--13---------------------------------------------------------------|
G|-------------14------12--14-----------------------------------------------|
D|-----------------14------------------10~--7---7--------7~-----------------|
A|--------------------------------------------10--10-7-10---10-7------------|
E|---------------------------------------------------------------10-8-7-8-7-|
 |                                                                          |
e|--------------------------------------------------------------------------|
B|--------------------------------------------------------------------------|
G|-------------------------------------------------------7------------------|
D|-7-----------------------------------3-----------------7------------------|
A|-7-----------------------------------3-----------------5------------------|
E|-5-----------------------------------1------------------------------------|
 |                                                                          |
e|--------------------------------------------------------------------------|
B|--------------------------------------------------------------------------|
G|-------------------------------------------------------7-7x---------------|
D|-7-7x--------------------------------3-3x--------------7-7x---------------|
A|-7-7x--------------------------------3-3x--------------5-5x---------------|
E|-5-5x--------------------------------1-1x---------------------------------|

e|--------------------------------------------------------------------------|
B|--------------------------------------------------------------------------|
G|--------------------------------------------------------------------------|
D|--------------------------------------------------------------------------|
A|--------------------------------------------------------------------------|
E|-5------------------------------------------------------------------------|
 |                                                                          |
e|--------------------------------------------------------------------------|
B|--------------------------------------------------------------------------|
G|--------------------------------------------------------------------------|
D|-7-----------------------------------7-7-x-7--7-7-x-7--7-7-x-7--7-7-x-----|
A|-7-----------------------------------7-7-x-7--7-7-x-7--7-7-x-7--7-7-x-----|
E|-5-----------------------------------5-5-x-5--5-5-x-5--5-5-x-5--5-5-x-----|

e|-------------------------------------15-----15-----15-----15-------15~~---|
B|---------------------------------------13-----13-----13------13-----------|
G|-----------------------------------------12-----12-----12-------12--------|
D|--------------------------------------------------------------------------|
A|--------------------------------------------------------------------------|
E|--------------------------------------------------------------------------|
 |                                                                          |
e|--------------------------------------------------------------------------|
B|--------------------------------------------------------------------------|
G|--------------------------------------------------------------------------|
D|-7------------------------------------------------------------------------|
A|-7------------------------------------------------------------------------|
E|-5------------------------------------------------------------------------|
 
Riff 5(Guitars 1-4 with distortion)
e|--------------------------------------------------------------------------|
B|-------11--11-10-11~-----11--11-10-11~-----11--11-10-11~-----11--11-13-10-|
G|--------------------------------------------------------------------------|
D|----12----------------12----------------12----------------12--------------|
A|--------------------------------------------------------------------------|
E|--------------------------------------------------------------------------|
 |                                                                          |
e|--------------------------------------------------------------------------|
B|--------------------------------------------------------------------------|
G|-------------------------------------8-----------------5------------------|
D|-5-----------------------------------8-----------------5------------------|
A|-5-----------------------------------6-----------------3------------------|
E|-3------------------------------------------------------------------------|
 |                                                                          |
e|--------------------------------------------------------------------------|
B|--------------------------------------------------------------------------|
G|-------------------------------------8---8-------------5---5--------------|
D|-5---5-------------------------------8---8-------------5---5--------------|
A|-5---5-------------------------------6---6-------------3---3--------------|
E|-3---3--------------------------------------------------------------------| 
 |                                                                          |
e|--------------------------------------------------------------------------|
B|--------------------------------------------------------------------------|
G|--------------------------------------------------------------------------|
D|--------------------------------------------------------------------------|
A|--------------------------------------------------------------------------|
E|--------------------------------------------------------------------------|

e|-------10--10-8--10~-----10--10-8--10~-----10--10-8--10~-13-12-10---------|
B|----8-----------------8-----------------8-------------------------13-11~~-|
G|--------------------------------------------------------------------------|
D|--------------------------------------------------------------------------|
A|--------------------------------------------------------------------------|
E|--------------------------------------------------------------------------|
 |                                                                          |
e|--------------------------------------------------------------------------|
B|--------------------------------------------------------------------------|
G|-------------------------------------8-----------------5------------------|
D|-5-----------------------------------8-----------------5------------------|
A|-5-----------------------------------6-----------------3------------------|
E|-3------------------------------------------------------------------------|
 |                                                                          |
e|--------------------------------------------------------------------------|
B|--------------------------------------------------------------------------|
G|-------------------------------------8---8-------------5---5--------------|
D|-5---5-------------------------------8---8-------------5---5--------------|
A|-5---5-------------------------------6---6-------------3---3--------------|
E|-3---3--------------------------------------------------------------------| 
 |                                                                          |
e|--------------------------------------------------------------------------|
B|--------------------------------------------------------------------------|
G|--------------------------------------------------------------------------|
D|--------------------------------------------------------------------------|
A|-------------------------------------6-6-6-6-6-6-6-6---3-3-3-3-3-3-3-3----|
E|-3-3-3-3-3-3-3-3---3-3-3-3-3-3-3-3----------------------------------------|

e|--------------------------------------------------------------------------|
B|--------------------------------------------------------------------------|
G|--------------------------------------------------------------------------|
D|--------------------------------------------------------------------------|
A|--------------------------------------------------------------------------|
E|--------------------------------------------------------------------------|
 |                                                                          |
e|--------------------------------------------------------------------------|
B|--------------------------------------------------------------------------|
G|-------------------------------------6-----------------5------------------|
D|-5-----------------------------------6-----------------5------------------|
A|-5-----------------------------------8-----------------3------------------|
E|-3------------------------------------------------------------------------|
 |                                                                          |
e|--------------------------------------------------------------------------|
B|--------------------------------------------------------------------------|
G|--------------------------------------------------------------------------|
D|-5------------------------------------------------------------------------|
A|-5------------------------------------------------------------------------|
E|-3------------------------------------------------------------------------|
 |                                                                          |  
e|--------------------------------------------------------------------------|
B|--------------------------------------------------------------------------|
G|--------------------------------------------------------------------------|
D|--------------------------------------------------------------------------|
A|--------------------------------------------------------------------------|
E|-3------------------------------------------------------------------------|

Riff 6 4x(Guitar 2, continuous fade out)
e|--------------------------------------------------------------------------|
B|--------------------------------------------------------------------------|
G|-------------------------------------6-----------------5------------------|
D|-5-----------------------------------6-----------------5------------------|
A|-5-----------------------------------8-----------------3------------------|
E|-3------------------------------------------------------------------------|

Chorus (Guitar 3 clean, Guitar 4 with phase shifter) 
e|----6--------6--------1--------1--------6--------6--------5--------5------|
B|----6--------6--------1--------1--------6--------6--------6--------6------|
G|----7--------7--------2--------2--------7--------7--------7--------7------|
D|----8--------8--------3--------3--------8--------8--------7--------7------|
A|----8--------8--------3--------3--------8--------8--------5--------5------|
E|----6--------6--------1--------1--------6--------6------------------------|
 |                                                                          |
e|--x-6--x-x-x-6--x-x-x-1--x-x-x-6--x-x-x-6--x-x-x-6--x-x-x-3--x-x-x-6--x-x-|
B|--x-6--x-x-x-6--x-x-x-1--x-x-x-6--x-x-x-8--x-x-x-8--x-x-x-3--x-x-x-6--x-x-|
G|--x-7--x-x-x-7--x-x-x-2--x-x-x-7--x-x-x-8--x-x-x-8--x-x-x-3--x-x-x-7--x-x-|
D|--x-8--x-x-x-8--x-x-x-3--x-x-x-8--x-x-x-8--x-x-x-8--x-x-x-5--x-x-x-8--x-x-|
A|--x-8--x-x-x-8--x-x-x-3--x-x-x-8--x-x-x-6--x-x-x-6--x-x-x-5--x-x-x-8--x-x-|
E|--x-6--x-x-x-6--x-x-x-1--x-x-x-6--x-x-x----x-x-x----x-x-x-3--x-x-x-6--x-x-|

e|----6--------6--------1--------1--------6--------6--------3--------6------|
B|----6--------6--------1--------1--------6--------6--------3--------6------|
G|----7--------7--------2--------2--------7--------7--------3--------7------|
D|----8--------8--------3--------3--------8--------8--------5--------8------|
A|----8--------8--------3--------3--------8--------8--------5--------8------|
E|----6--------6--------1--------1--------6--------6--------3--------6------|
 |                                                                          |
e|--x-6--x-x-x-6--x-x-x-1--x-x-x-6--x-x-x-6--x-x-x-6--x-x-x-3--------6------|
B|--x-6--x-x-x-6--x-x-x-1--x-x-x-6--x-x-x-8--x-x-x-8--x-x-x-3--------6------|
G|--x-7--x-x-x-7--x-x-x-2--x-x-x-7--x-x-x-8--x-x-x-8--x-x-x-3--------7------|
D|--x-8--x-x-x-8--x-x-x-3--x-x-x-8--x-x-x-8--x-x-x-8--x-x-x-5--------8------|
A|--x-8--x-x-x-8--x-x-x-3--x-x-x-8--x-x-x-6--x-x-x-6--x-x-x-5--------8------|
E|--x-6--x-x-x-6--x-x-x-1--x-x-x-6--x-x-x----x-x-x----x-x-x-3--------6------|



| /  slide up
| \  slide down
| h  hammer-on
| p  pull-off
| ~  vibrato
| +  harmonic
| x  Mute note
Tap to rate this tab
 
# A B C D E F G H I J K L M N O P Q R S T U V W X Y Z