Song name
# A B C D E F G H I J K L M N O P Q R S T U V W X Y Z

The Protomen - The Stand tab


"The Stand"
by The Protomen


VERSE 1 (part 1)(x2)
e|--------------------|
b|--------------------|
g|---8----7----5------|
d|---8----7----5------|
a|---6----5----3------|
E|--------------------|

VERSE 1 (Part 2) (x14)"You tried to understand"
e|-------------12--15-12-13-12----|
b|-----------13-------------------|
g|---------14----14---------------|
d|--------------------------------|
a|--------------------------------|
E|--------------------------------|

VERSE 1 (Part 2 end with this x2)
e|-----12--13--12---|
b|---12-------------|
g|-13----13--13--13-|
d|------------------|
a|------------------|
E|------------------|

"Tell me now"

Verse 1 (Part 3) (x1)
e|-----------------------|
b|-----------------------|
g|-----------------------|
d|-------7-----5-----3---|
a|-------7-----5-----3---|
E|-------5-----3-----1---|

"Tell me man!"

Pre Chorus (Rhythm) (x1)
e|---------------------------------------------------------------------------------------------|
b|---------------------------------------------------------------------------------------------|
g|--2---2---2-2---2----2---2---2-2---2----2---2---2-2---2----1---1---1-1---3-------------------|
d|--2---2---2-2---2----2---2---2-2---2----2---2---2-2---2----2---2---2-2---2-------------------|
a|--0---0---0-0---0----0---0---0-0---0----0---0---0-0---0----2---2---2-2---2-------------------|
E|---------------------3---3---3-3---3----1---1---1-1---1----0---0---0-0---0-------------------|

Chorus (Rhythm guitar) (x1)
e|---------------------------------------------------------------------------------------------|
b|---------------------------------------------------------------------------------------------|
g|--2---2---2-2---2----2---2---2-2---2----2---2---2-2---2----1---1---1-1---3-------------------|
d|--2---2---2-2---2----2---2---2-2---2----2---2---2-2---2----2---2---2-2---2-------------------|
a|--0---0---0-0---0----0---0---0-0---0----0---0---0-0---0----2---2---2-2---2-------------------|
E|---------------------3---3---3-3---3----1---1---1-1---1----0---0---0-0---0-------------------|
 |
 |Chorus (Lead Guitar) (x8)
e|------12--15--12--13--12--|
b|----13--------------------|
g|--14----14----------------|
d|--------------------------|
a|--------------------------|
E|--------------------------|

"I've given everything I can"

Verse 2 (Part 1) (x2)
e|--------5/7-8--7-5------|
b|-------------------5----|
g|------------------------|
d|------------------------|
a|------------------------|
E|------------------------|


"So it begins!"

Verse 2 (Part 2) (x2)
e|---------------------------------------------------------------------------------------------|
b|---------------------------------------------------------------------------------------------|
g|--2---2---2-2---2----2---2---2-2---2----2---2---2-2---2----1---1---1-1---3-------------------|
d|--2---2---2-2---2----2---2---2-2---2----2---2---2-2---2----2---2---2-2---2-------------------|
a|--0---0---0-0---0----0---0---0-0---0----0---0---0-0---0----2---2---2-2---2-------------------|
E|---------------------3---3---3-3---3----1---1---1-1---1----0---0---0-0---0-------------------|


Chorus 2 (Rhythm guitar) (x1)
e|---------------------------------------------------------------------------------------------|
b|---------------------------------------------------------------------------------------------|
g|--2---2---2-2---2----2---2---2-2---2----2---2---2-2---2----1---1---1-1---3-------------------|
d|--2---2---2-2---2----2---2---2-2---2----2---2---2-2---2----2---2---2-2---2-------------------|
a|--0---0---0-0---0----0---0---0-0---0----0---0---0-0---0----2---2---2-2---2-------------------|
E|---------------------3---3---3-3---3----1---1---1-1---1----0---0---0-0---0-------------------|
 |
 | Chorus (Lead Guitar)(x8)
e|------12--15--12--13--12--|
b|----13--------------------|
g|--14----14----------------|
d|--------------------------|
a|--------------------------|
E|--------------------------|


"We've given everything we can"

Verse 3(x3)
e|--------5/7-8--7-5------|
b|-------------------5----|
g|------------------------|
d|------------------------|
a|------------------------|
E|------------------------|

Verse 3 (end)
e|--------5/7-8--7-5/12---|
b|------------------------|
g|------------------------|
d|------------------------|
a|------------------------|
E|------------------------|



SOLO

e|--12b--12b-11h12---11h12-12-11h12---15p13p12-15p13p12-15p13p12-15p13p12-15p13p12-15p13p12---|
b|--------------------------------------------------------------------------------------------|
g|--------------------------------------------------------------------------------------------|
d|--------------------------------------------------------------------------------------------|
a|--------------------------------------------------------------------------------------------|
E|--------------------------------------------------------------------------------------------|


e|-8--8-8--7-8-10--8-7-8---8--8-8--7-8-14-13-11-13---8--8-8--7-8-10--8-7-8---8--8-7---8-7-8--/20-|
b|-----------------------------------------------------------------------------------------------|
g|-----------------------------------------------------------------------------------------------|
d|-----------------------------------------------------------------------------------------------|
a|-----------------------------------------------------------------------------------------------|
E|-----------------------------------------------------------------------------------------------|



e|--7-8-10--10-10p8p7-14-14-14p13p11h13--20--| 
b|-------------------------------------------|
g|-------------------------------------------|
d|-------------------------------------------| X2
a|-------------------------------------------|
E|-------------------------------------------|



e|--7-8-10--10-10p8p7-14-14-14p13p11/20--20-19---23\\\\\\|
b|-------------------------------------------------------|
g|-------------------------------------------------------|
d|-------------------------------------------------------|
a|-------------------------------------------------------|
E|-------------------------------------------------------|


FINAL VERSE (x4)
e|--------5/7-8--7-5------|
b|-------------------5----|
g|------------------------|
d|------------------------|
a|------------------------|
E|------------------------|


Hope you all enjoyed this.
Tap to rate this tab
 
# A B C D E F G H I J K L M N O P Q R S T U V W X Y Z