Song name
# A B C D E F G H I J K L M N O P Q R S T U V W X Y Z

The Sheepdogs - I Dont Know tab

Tabbed by; Gabe Craig, Zacch Butler, Matt Butler

Song; I Dont Know
Band; The Sheepdogs
Album; Five Easy Pieces EP
Tuning; EADGBe (Standard Tuning)


Tablature Markings;
******************************************************************
|h  Hammer-On
|p  Pull-Off
|/  Slide
******************************************************************

*Note this is the Rhythm Guitar Part*


INTRO/ VERSE/ CHORUS
e|--0-0-2-0---------0---|--0-0-2-0-----------0--|
B|--0-0-----2-0-3-3-2---|--0-0-----2-0-3-----2--|
G|--1-1---------2-2-2---|--1-1---------2-----2--|
D|--2-2---------0-0-2---|--2-2---------0-----2--|
A|--2-2-------------0---|--2-2---------------0--|
E|--0-0-------------0---|--0-0---------------0--|

BRIDGE A
GUITAR I
e|------------------------|
B|------------------------|
G|--4-4-4-4-4----7-2------|
D|--4-4-4-4-4----7-2------|
A|--2-2-2-2-2----5-0------|
E|------------------------|

GUITAR II
e|--0-0-0-0-0----2-0-------|
B|--0-0-0-0-0----3-2-------|
G|--1-1-1-1-1----2-2-------|
D|--2-2-2-2-2----0-0-------|
A|--2-2-2-2-2--------------|
E|--0-0-0-0-0--------------|

BRIDGE B
e|--------------------------------------------------|
B|--------------------------------------------------|
G|--4-4-4-4-4----4-4-4-4-4----5-5-5-5----5-6-7-8----|
D|--4-4-4-4-4----4-4-4-4-4----5-5-5-5----5-6-7-8----|
A|--2-2-2-2-2----2-2-2-2-2----3-3-3-3----3-4-5-6----|
E|--------------------------------------------------|

Lyrics;
Never have I heard 
A more disturbing word
Holdin' out for long
I never felt so quite disturbed.

I get up in the morning now, I don't know
Waiting for the evening now, I don't know
Been lookin' for whats comin' now, I don't know
Would somebody please, help me.

Lookin' back at me
There's more than mystery
Letters and pages of 
Ancient history, yeah.


I get up in the morning now, I don't know
I've been waiting for the evening now, I don't know
I've been lookin' for whats comin' now, I don't know
Would somebody please, help me.

I don't know, help me. 
I don't know, I don't know, help me. (x3)

Tap to rate this tab
# A B C D E F G H I J K L M N O P Q R S T U V W X Y Z