Song name
# A B C D E F G H I J K L M N O P Q R S T U V W X Y Z

The Showdown - Head Down tab

This is only the lead part of the song, I don't have the rhythm guitar yet.



e|-------------------------------------------------------------------|
B|---------17-17-15~-------14h15-15p14--14-15-14---------------------|
G|-----16---------------14-----------------------16-14---------------|
D|--14-------------------------------------------------17-16-14-12/--|
A|-------------------------------------------------------------------|
E|-------------------------------------------------------------------|

e|-----------------------------------------------------15-14-----------|
B|---------17-17-15~-------14h15-15p14--14-15-14-------------17-15-14--|
G|-----16---------------14-----------------------16-14-----------------|
D|--14-----------------------------------------------------------------|
A|---------------------------------------------------------------------|
E|---------------------------------------------------------------------|
Tap to rate this tab
 
# A B C D E F G H I J K L M N O P Q R S T U V W X Y Z