Song name
# A B C D E F G H I J K L M N O P Q R S T U V W X Y Z

The Showdown - Prometheus tab

   Prometheus: Fires of the Deliverance
   -The Showdown

     *Sorry its only the intro, I'm still working on the rest...
      please leave a comment nd tell me what you think

e|----------------------------------------------------------------|
b|----------------------------------------------------------------|
g|---5-7----------------------5-7------7-5---10-7----5-7----------|
d|--------0-0-0-0-0-0-0-0-0-0-----0-0-0---0--------0------0-0-0-0-|
a|----------------------------------------------------------------|
D|----------------------------------------------------------------|
      H                        H        P      P      H


e|------------------------------------4---------||----------------|
b|-------------------------------6-7-----7-6----||----------------|
g|----------------------------------------------||------9-7-------|
d|-0-0-0-0-3-0-0-0-0-0-0-0-0-0------------------||--8--------7----|
a|----------------------------------------------||--8--------7----|
D|----------------------------------------------||--8--------7----|
            P
I cant tell if the 9 on b is a 10, youll have to decide for yourself,
All of the opens are palm muted except the pull off from 3...
Also the high part is palm muted

Verse:
e|----------------------------------------------------------------|
b|----------------------------------------------------------------|
g|----------------------------------------------------------------|
d|----------------------------------------------------------------|
a|--------------3-5-------5-3---8-5---3-5-------------------------|
D|-0-0-0-0-0-0------0-0-0-----0-----0------0-0-0-0-0-0-3-0-0-0----|
                 H         P     P     H                P

e|-----------------------------------------------||-----------------|
b|-----------------------------------------------||-----------------|
g|-----------------------------------------------||-----------------|
d|-------------------------------8---7-----------||----5-----7------|
a|-------------------------------8---7-----------||----3--5--5--6---|
D|--0-0-0-3-3-5-5-6-6-5-5-3-0-0--8---7---7/12\3--||-------5-----6---|
                           P
Once again, all of the opens are palm muted except the pull offs

Still working on the rest of the song...
Please leave a comment...
Thanks
Tap to rate this tab
 
# A B C D E F G H I J K L M N O P Q R S T U V W X Y Z