Song name
# A B C D E F G H I J K L M N O P Q R S T U V W X Y Z

The Showdown - So Help Me God tab

Help us improve GuitareTab! Take a short survey!
-------  So Help Me God - The Showdown
--------------------------------------------------------------------


Tuning:Drop D
Intro:
e|-------------------------------0---------------------3-2------3-3~----|
B|---------0----------------2--3----------0------------3---3----3-3~----|
G|-------1-----------7-------0--0-------1---------7----------2--2-0~----|
D|-----------------7------2-------------------------7-------------------|
A|----2----------5------0-------------2--------5------------------------|
E|--2----------5--------------------2--------5--------------------------|

Distortion:
e|-----------------------------------------------------------|
B|-------------10b----------------10b---------10b-10b--------|
G|----//\\-----10b-8--------------10b--8------10b-10b--------|
D|---//--\\-----------10-8---------------10-8----------------|
A|--//----\\---------------10-8-6----------------------------|
E|-//------\\------------------------------------------------|

e|-----------------------------------------------------------|
B|--10b------------------10b--------/13----------------------|
G|--10b-8----------------10b-8-------------------------------|
D|---------10-8----------------10-8--------------------------|
A|--------------10-8-6---------------------------------------|
E|-----------------------------------------------------------|


e|--------------------------------------------------------|
B|--------------------------------------------------------|
G|--------------------------------------------------------|2x
D|--10---1-1-1-3---10-10--1-1-1-3--10-1-1-1-3-1-3~--------|
A|--10---1-1-1-3---10-10--1-1-1-3--10-1-1-1-3-1-3~--------|
E|--10---1-1-1-3---10-10--1-1-1-3--10-1-1-1-3-1-3~--------|
         . .              . .         . .     .
Verse:
e|--------------------------------|
B|--------------------------------|
G|------------------3---3---------|4x
D|--10-10-10--------3---3-3-------|
A|--10-10-10----3-3---3---3-------|
E|--10-10-10----3-3---3---3-------|

e|----------------------------------------------------------|
B|----------------------------------------------------------|
G|--7---------7-8---------8-9---------9-10---------10-10----|2x
D|--8---------8-8---------8-8---------8-8----------8--8-----|
A|--8-8-8-8-8-8-8-8-8-8-8-8-8-8-8-8-8-8-8--8-8-8-8-8--8-----|
E|--8-8-8-8-8-8-8-8-8-8-8-8-8-8-8-8-8-8-8--8-8-8-8-8--8-----|
      . . . .     . . . .     . . . .      . . . . 

Chorus:
e|-------------------------------|
B|-------------------------------|
G|-------------------------------|4x
D|--10-10\---1--3-3-3-1-3-1------|
A|--10-10\---1--3-3-3-1-3-1------|
E|--10-10\---1--3-3-3-1-3-1------|


e|--------------------------------------------|
B|---10b----------------10b---------10b-10b---|
G|---10b-8--------------10b--8------10b-10b---|
D|---------10-8---------------10-8------------|
A|--------------10-8-6------------------------|
E|--------------------------------------------|

e|-----------------------------------------------------------|
B|--10b------------------10b--------/13----------------------|
G|--10b-8----------------10b-8-------------------------------|
D|---------10-8----------------10-8--------------------------|
A|--------------10-8-6---------------------------------------|
E|-----------------------------------------------------------|

e|--------------------------------|
B|--------------------------------|
G|------------------3---3---------|4x
D|--10-10-10--------3---3-3-------|
A|--10-10-10----3-3---3---3-------|
E|--10-10-10----3-3---3---3-------|

e|----------------------------------------------------------|
B|----------------------------------------------------------|
G|--7---------7-8---------8-9---------9-10---------10-10----|2x
D|--8---------8-8---------8-8---------8-8----------8--8-----|
A|--8-8-8-8-8-8-8-8-8-8-8-8-8-8-8-8-8-8-8--8-8-8-8-8--8-----|
E|--8-8-8-8-8-8-8-8-8-8-8-8-8-8-8-8-8-8-8--8-8-8-8-8--8-----|
      . . . .     . . . .     . . . .      . . . . 


Chorus:
e|-------------------------------|
B|-------------------------------|
G|-------------------------------|4x
D|--10-10\---1--3-3-3-1-3-1------|
A|--10-10\---1--3-3-3-1-3-1------|
E|--10-10\---1--3-3-3-1-3-1------|

Solo:
e|---------------------------------------------------------------------------|
B|-----0/4\---9b-------------------------------------------------------------|
G|-0/6\-------9b-7----------------------------16-14-12p11h12-11--------------|
D|-----------------9-7-----------------/16-16-------------------12-14-12-----|
A|---------------------9-7-5--9p7-10p9---------------------------------------|
E|---------------------------------------------------------------------------|

e|---------------------------------------------------------------------------|
B|--------------8p7---8p7---8p7---8p7----------------------------------------|
G|------------------7-----7-----7-----7--------------------------------------|
D|----9h10p9\7---------------------------------------------------------------|
A|---------------------------------------------------------------------------|
E|---------------------------------------------------------------------------|
                *     *     *     *
e|---------------------------------------------------------------------------|
B|----15p12p10h15p12p10h15p12p10h15p12p10h15p12p10/19--19-19-19-17-----------|
G|-----------------------------------------------------------------19-16-19--|
D|---------------------------------------------------------------------------|
A|---------------------------------------------------------------------------|
E|---------------------------------------------------------------------------|
      ^^hammer-ons and pulloffs are tapped, dont think i got 
        the count right but those are the notes
e|---------------------------------------------------------------------------|
B|----------------------------------------18b-15-12-15-----------------------|
G|--------------------16h18--------16-18-------------------------------------|
D|----19-16--16h17h19--------16-17-------------------------------------------|
A|---------------------------------------------------------------------------|
E|---------------------------------------------------------------------------|

e|----------------------------------------------------------|
B|----------------------------------------------------------|
G|--7---------7-8---------8-9---------9-10---------10-10----|2x
D|--8---------8-8---------8-8---------8-8----------8--8-----|
A|--8-8-8-8-8-8-8-8-8-8-8-8-8-8-8-8-8-8-8--8-8-8-8-8--8-----|
E|--8-8-8-8-8-8-8-8-8-8-8-8-8-8-8-8-8-8-8--8-8-8-8-8--8-----|
      . . . .     . . . .     . . . .      . . . . 


then the chorus, on the part where he says "you are the one i love" just play the verse

outro solo:
e|--------------------------9-10-10~-10~-------------------------------------|
B|---16p13-------13--/10-11-------------------x-x-8-6-8-6-4------------------|
G|---------15-12--------------------------8b~---------------5-7-8-5-7-8------|
D|---------------------------------------------------------------------------|
A|---------------------------------------------------------------------------|
E|---------------------------------------------------------------------------|

e|---------11----------------------------------------------------------------|
B|------------11-13-11-11-11-13-11-11-11-11-13-11-11-11-11-13-11-11----------|
G|----9b~--------------------------------------------------------------------|
D|---------------------------------------------------------------------------|
A|---------------------------------------------------------------------------|
E|---------------------------------------------------------------------------|

e|-----------------------------------------------11------11------------------|
B|-----10h11-10h11-10h11-10h11-10h11------8~--------13-13---13-13--13-13-----|
G|------------------------------------9b~------------------------------------|
D|-----------------------------------------------------------------------10~-|
A|---------------------------------------------------------------------------|
E|---------------------------------------------------------------------------|

i know thats not right its just what i got form listening to it.
i also didn't get the last 10 seconds or so cause it fades out



| *  inch harmonic
| /  slide up
| \  slide down
| h  hammer-on
| p  pull-off
| ~  vibrato
| +  harmonic
| x  Mute note
===============================================================================
Related for So Help Me God tab