Song name
# A B C D E F G H I J K L M N O P Q R S T U V W X Y Z

The Twilight Singers - Underneath The Waves tab

THE TWILIGHT SINGERS

UNDERNEATH THE WAVES

tabbed by dan (yellowledbetter_69@hotmail.co.uk)

standard tuning

|-------------------------------------------------------------|
|-------------------------------------------------------------|
|-------------------------------------------------------------|
|---5--5--5--5--5--5--5--5--5--5--/9--9--9--9--9--9--9--9--9--|
|---5--5--5--5--5--5--5--5--5--5--/9--9--9--9--9--9--9--9--9--|
|---3--3--3--3--3--3--3--3--3--3--/7--7--7--7--7--7--7--7--7--|
intro/verse    NOTE: the verse is actually only G on guitar, play the B if you're without a bass.

|----------/------------------------------------------------------|
|-----------/-----------------------------------------------------|
|----------/------------------------------------------------------|
|---------RANDOM SLIDING------------------------------------------|
|-------/-----------------------/10--10\9--------/12--12\10vvvvv---|
|-------/---------------------------------------------------------|
intro guitar 2 delay  and e-bow

|-----------------------------------------------|
|-----------------------------------------------|
|---5--5--5--5--5--5--/9--9--9--9--7--7--7--7---|
|---5--5--5--5--5--5--/9--9--9--9--7--7--7--7---|
|---3--3--3--3--3--3--/7--7--7--7--5--5--5--5---|
|-----------------------------------------------|
chorus

back to verse, the repeat chorus

|------------------------------------------------|
|------------------------------------------------|
|----5-----4---------------5-----4---------5-----|
|----5-----4-----5---------5-----4----5----5-----|
|----3-----2-----5---------3-----2----5----3-----|
|----------------3----2---------------3----------|
bridge    (piano tabbed for guitar)

|----------------------------------------------------|
|---13vvvvvvvvvvvvvvvvvvvv12vvvvvvvvvvvvvvvvvvvvvv---|
|----------------------------------------------------|
|----------------------------------------------------|
|----------------------------------------------------|
|----------------------------------------------------|
guitar 2 bridge   with e-bow

all other parts are repeated a few times after that.

|------------------------------------------------------|
|------------------------------------------------------|
|------------------------------------------------------|
|--5-5-5-5-5-5-5-5-5-5-5--/9-9-9-9-9-9-9-9-9-9-9-9-9---|
|--5-5-5-5-5-5-5-5-5-5-5--/9-9-9-9-9-9-9-9-9-9-9-9-9---|
|--3-3-3-3-3-3-3-3-3-3-3--/7-7-7-7-7-7-7-7-7-7-7-7-7---|
outro     this twice

|---------------------------------------------------|
|--1-1-1--1-1-1-1-1-1-1-1---------7-8--------8--7---|
|--0-0-0--0-0-0-0-0-0-0-0--/9--9--9-9--7--7--7--7---|
|--2-2-2--2-2-2-2-2-2-2-2--/9--9--9-9--7--7--7--7---|
|--3-3-3--3-3-3-3-3-3-3-3--/7--7-------5--5---------|
|---------------------------------------------------|
outro continued    x3  3rd slow down tempo    end on C

guitar 2 just uses feedback, delay and e-bow to create those sounds. impossible to tab.

that's pretty much it.
any comments, suggestions etc, email me.
Tap to rate this tab
# A B C D E F G H I J K L M N O P Q R S T U V W X Y Z