Song name
# A B C D E F G H I J K L M N O P Q R S T U V W X Y Z

The Twilight Singers - Twilight tab

Ok since I canít hear guitar in this song, here is the organ tabbed for guitar

Verse
e|----------------|
B|-7---7---12-----|
G|-6---6---11-----|
D|-4---6---9------|
A|----------------|
E|----------------|

Chorus 
e|-------------------------------|
B|-7---7---7---7-----7---7---7---|
G|-6---6---6---6-----6---6---6---|
D|-8---6---4---6-----8---6---4---|
A|-------------------------------|
E|-------------------------------|

Repeat Verse and (Chorus x2)

Then repeat Verse again

Last Chorus (x3)
e|-------------------------------|
B|-7---7---7-----7---7---7---7---|
G|-6---6---6-----6---6---6---6---|
D|-8---6---4-----8---6---4---6---|
A|-------------------------------|
E|-------------------------------|

Outro 5.11
e|----------------------------|
B|-7---7---7----------7--7~---|
G|-6---6---6----3/4---6--6~---|
D|-8---6---4----4-----4--4~---|
A|----------------------------|
E|----------------------------|
Tap to rate this tab
# A B C D E F G H I J K L M N O P Q R S T U V W X Y Z