Song name
# A B C D E F G H I J K L M N O P Q R S T U V W X Y Z

The Twilight Singers - Martin Eden tab

Piano
e|----------------------------------------------------------------------------------|
B|---6---6----6---6----6---6----6---6---6------6---6----6---6----6--6-----6---6---6-|
G|-7---7----5---5----3---3----2---3---5------7---7----5---5----3---3----2---3---2---|
D|----------------------------------------------------------------------------------|
A|----------------------------------------------------------------------------------|
E|----------------------------------------------------------------------------------|

e|--------------------------------------------------------------------------------|
B|---6---6----6---6----6---6----6---6---6-----6---6----6---6----6---6---6--6---6--|
G|-7---7----5---5----3---3----2---3---5-----7---7----5---5----3---3---------------|
D|--------------------------------------------------------------------7---5---3---|
A|--------------------------------------------------------------------------------|
E|--------------------------------------------------------------------------------|


Guitar
The rhythm is hard, if you listen to the last few seconds of the song you can hear it better
e|--------------8---8-------------------------|
B|---10---10-------------10---10-----8-----10-|
G|-7----7-----7---7----7----7-----10----10----|
D|--------------------------------------------|
A|--------------------------------------------|
E|--------------------------------------------|

Another guitar plays this “let’s all play suicide” and “get off your knees”
e|--------------------------|
B|-6---6---5---6----6---(5)-|
G|---7---7---7---7----7-----|
D|--------------------------|
A|--------------------------|
E|--------------------------|


Chorus
“How wide?”                           “How far?”
e|------------------------------------------------------------------|
B|------------------------------------------------------------------|
G|-7~--9~--3~--5~--2~--3~--5~--3~-----7~--9~--10~--12~--10~--9~--7~-|
D|------------------------------------------------------------------|
A|------------------------------------------------------------------|
E|------------------------------------------------------------------|

Verse 2
Piano also plays this (guess this is played with right hand or whatever) while playing 
as first verse
e|-13-12-|
B|-------|
G|-------|
D|-------|
A|-------|
E|-------|

Guitar repeats verse

Last Chorus
“I Breathe in”                       “No Wind, rain”
e|------------------------------------------------------------------------|
B|------------------------------------------------------------------------|
G|-7~--9~--3~--5~--2~--3~--5~--3~-----7~--9~--10~--12~--10~--9~--10~--12~-|
D|------------------------------------------------------------------------|
A|------------------------------------------------------------------------|
E|------------------------------------------------------------------------|

“How Wide?”
e|------------------------------|
B|------------------------------|
G|-7~--9~--10~--12~--10~--9~--7~|
D|------------------------------|
A|------------------------------|
E|------------------------------|

Piano
Keeps playing
e|-------|
B|----13-|
G|-14----|
D|-------|
A|-------|
E|-------|


Outro/Last Verse
Repeat until end
Guitar
e|--------------8---8-------------------------|
B|---10---10-------------10---10-----8-----10-|
G|-7----7-----7---7----7----7-----10----10----|
D|--------------------------------------------|
A|--------------------------------------------|
E|--------------------------------------------|
Tap to rate this tab
# A B C D E F G H I J K L M N O P Q R S T U V W X Y Z