Song name
# A B C D E F G H I J K L M N O P Q R S T U V W X Y Z

The Twilight Singers - Im Ready tab

THE TWILIGHT SINGERS

I'M READY

tabbed by dan (yellowledbetter_69@hotmail.co.uk)

standard tuning

|----------------------------------------------------------------------|
|----------------------------------------------------------------------|
|-----------------------------------5-5-5-5-5-5-5-5-7-7-7-7-7-7-7-7-7--|
|---2-2-2-2-2-2-2--4-4-4-4-5-5-5-5--5-5-5-5-5-5-5-5-7-7-7-7-7-7-7-7-7--|
|---2-2-2-2-2-2-2--4-4-4-4-5-5-5-5--3-3-3-3-3-3-3-3-5-5-5-5-5-5-5-5-5--|
|---0-0-0-0-0-0-0--2-2-2-2-3-3-3-3-------------------------------------|
intro

|--------------------------------------------------------------------|
|--------------------------------------------------------------------|
|-----------------------------------5-5-5-5-5-5-5-5-7-7-7-7-7-7-7-7--|
|--2-2-2-2-2-2-2-2-2-2-2-2-2-2-2-2--5-5-5-5-5-5-5-5-7-7-7-7-7-7-7-7--|
|--2-2-2-2-2-2-2-2-2-2-2-2-2-2-2-2--3-3-3-3-3-3-3-3-5-5-5-5-5-5-5-5--|
|--0-0-0-0-0-0-0-0-0-0-0-0-0-0-0-0-----------------------------------|
verses

|-------------------------------------------------------------------|
|-------------------------------------------------------------------|
|--5-5-5-5-5-5-5-5-7-7-7-7-7-7-7-7----------------------------------|
|--5-5-5-5-5-5-5-5-7-7-7-7-7-7-7-7--2-2-2-2-2-2-2--4-4-4-4-5-5-5-5--|
|--3-3-3-3-3-3-3-3-5-5-5-5-5-5-5-5--2-2-2-2-2-2-2--4-4-4-4-5-5-5-5--|
|-----------------------------------0-0-0-0-0-0-0--2-2-2-2-3-3-3-3--|
chorus

|-------------------|----------------------|
|-------------------|----------------------|
|---5------------7--|--/7---5p4-5p4----/9--|
|---5------------7--|---------------5------|
|---3------------5--|----------------------|
|-------------------|----------------------|
outro      strum chords lightly         this is played right at the end

that's about it. this is mainly based on a live version (except the little bit at the end)
e-mail me with any comments etc


Tap to rate this tab
 
# A B C D E F G H I J K L M N O P Q R S T U V W X Y Z