Song name
# A B C D E F G H I J K L M N O P Q R S T U V W X Y Z

The White Stripes - Offend In Every Way tab

This was from the help of my teacher. its tuned down a full step

if theres anything wrong with it email me at go_chuck_yourself@hotmail.com


Intro: (also bridge, but the bridge is a little different)
|--------------------|
|--------------------|
|--------------------|
|---2--0-----------2-|
|----------3--2--0-0-|
|--------------------|


|-------------------------|
|-------------------------|
|-------------------------|
|--0-2-3-5--5-------------|
|-----------3-------------|


|----------------------------|
|----------------------------|
|-----------------2----------|
|--0------0----2-------------|
|------3---------------------|
|----------------------------|

|-----------------------------|
|-----------------------------|
|------2--0--2--4-------------|
|------------------2--2-------|
|--0--------------------------|
|-----------------------------|

|-----------------------------|
|-----------------------------|
|---4/5--4--2--0--2-----------|
|---------------------2-------|
|---------------------0-------|
|-----------------------------|

|-------------------------|
|-------------------------|
|-----------------2-------|
|--------------0--0-------|
|--0--2--3--4-------------|
|-------------------------|

|-------------------------|
|-------------------------|
|-------------------------|
|--0----------------------|
|-----3--2--0-----5-------|
|--------------3--3-------|

|-------------------------|
|-------------------------|
|-------------------------|
|--------------2----------|
|-----0--2--3--0----------|
|--3----------------------|

Verse: (all)

|-------------------------|
|-------------------------|
|-------------------------|
|-2--2-2-2----------------|
|-0--0-0-0-0--5--5-5-5--0-|
|----------0--3--3-3-3--0-|

|---------------------------|
|---------------------------|
|---------------------------|
|--------------4-4---4-4----|
|-2--2-2-2--0--2-2---2-2--0-|
|-0--0-0-0--0-------------0-|

|--------------------------|
|--------------------------|
|-------------2--2-2-2-----|
|-2--2-2-2-0--0--0-0-0-----|
|-0--0-0-0-0-------------0-|
|------------------------0-|

|--------------------------|
|--------------------------|
|--------------------------|
|-------------2-2----------|
|--5--5-5-5---0-0----------|
|--3--3-3-3----------------|


bridge:

|------------------------------------|
|------------------------------------|
|------------------------------------|
|--20---2----2-2---------------------|
|----3----3--0-0---0-2-3-5-5-5-5-----|
|--------------------------3-3-3-----|

|--------------------------------|
|--------------------------------|
|----------2-2---2-0-2-4---------|
|----0-0-2---------------2-2-2---|
|-----3--------------------------|
|--------------0-----------------|

|--------------------------|
|--------------------------|
|---555420242--------------|
|--------------2-----------|
|--------------0-----------|
|--------------------------|

|---------------------------------------|
|---------------------------------------|
|---------------------------------------|
|----------0-0--0-----------------------|
|--0-2-3-4--------3-2-0---5----0-2-3-0--|
|-----------------------3-3--3----------|

the ending is the intro, only played slower. so, Enjoy!
Tap to rate this tab
# A B C D E F G H I J K L M N O P Q R S T U V W X Y Z