Song name
# A B C D E F G H I J K L M N O P Q R S T U V W X Y Z

There For Tomorrow - The Remedy tab

-------------------------------------------------------------------------------
There For Tomorrow - The Remedy
-------------------------------------------------------------------------------

Tabbed by: chad724
Email: chad724@gmail.com
Tuning: Standard

************************************

| h   hammer-on
| p   pull-off
| b   Bend
| ()  Optional

************************************

This is my first tab, simple because the song hadn't been tabbed out before, and I 
to learn how to play it. So I spent some time tabbing it for you guys. :)

There's a "pre-intro" with the bass I believe. Then the band all comes in at once, after 
measures, and that's where this tab picks up.

Intro:
e|--9---9-11-9---12-11----12-11-----| x2
B|----9--------9-------12-------12--|
G|----------------------------------|
D|----------------------------------|
A|----------------------------------|
E|----------------------------------|

The verses all begin with the bass guitar, and the electric guitar comes in after 4 
of the bass.

Verse:
e|-----------------------------------------------| x2
B|-----------------------------------------------|
G|--6-4-4h6-6---6-4-6-6(b)---6-4-4h6-6---6-4-8b--|
D|-----------------------------------------------|
A|-----------------------------------------------|
E|-----------------------------------------------|

Pre Chorus:
e|-------------------------| (then bass on
B|-------------------------|  C sharp note
G|------9-----9------------|  x7 or x8 and
D|--7-7-9-7-7-9------------|  then there's
A|--0-0---0-0---0h2-0h2----|  a slide down)
E|-------------------------|  Then PreChorus again, and repeat the bass.

Chorus:
e|---------------------------------------------------------------------12-11-----|
B|--------9-----9-99---------9-----9-99---------9-----9-99---------9---------12--|
G|--9-9-9----9-9-------9-9-9----9-9-------9-9-9----9-9-------9-9-9---------------|
D|-------------------------------------------------------------------------------|
A|-------------------------------------------------------------------------------|
E|-------------------------------------------------------------------------------|

Post Chorus:
e|--9---9-11-9----------------------|
B|----9--------9--------------------|
G|----------------------------------|
D|----------------------------------|
A|----------------------------------|
E|----------------------------------|

Bridge:
e|---------------------7-----7-----7------------------------7-----7-----7----|
B|--9------9---------9---9-------9-------9------9---------9---9-------9------|
G|----9---------9----------9---------9-----9---------9----------9---------9--|
D|------11--------11-------------------------11--------11--------------------|
A|---------------------------------------------------------------------------|
E|---------------------------------------------------------------------------|


If you find anything wrong with this tab, please send me an email.

Thanks for the support!
Tap to rate this tab
 
# A B C D E F G H I J K L M N O P Q R S T U V W X Y Z