Song name
# A B C D E F G H I J K L M N O P Q R S T U V W X Y Z

There For Tomorrow - Just In Time tab

There for Tomorrow
Just In Time

Standard Tuning

INTRO and VERSE
E|---------------------|
B|---------------------|
G|---------------------|
D|---------------------|
A|----4-4-4-4-4-4-4-4--|
E|---7-7-7-7-7-7-7-7---|

PRE-CHORUS
E|-----------------------------------|
B|-----------------------------------|
G|-----------------------------------|
D|--6-----2-----6-----2-----4-----7~~|
A|--6 X8--2 X8--6 X8--2 X8--4 X8--7~~|
E|--4-----0-----4-----0-----2-----5~~|

CHORUS
E|-------------------------------------------------|
B|-------------------------------------------------|
G|-------------------------------------------------|
D|--9-----4-----2------9-----4-----2------9-----4~~|
A|--9 X8--4 X8--2 X16--9 X8--4 X8--2 X16--9 X8--4~~|
E|--7-----2-----0------7-----2-----0------7-----2~~|

VERSE 2
E|---------------------|
B|---------------------|
G|---------------------|
D|---------------------|
A|----4-4-4-4-4-4-4-4--|
E|---7-7-7-7-7-7-7-7---|

PRE-CHORUS
E|------------------------------------|
B|------------------------------------|
G|------------------------------------|
D|--6-----2-----6-----2-----4-----7---|
A|--6 X8--2 X8--6 X8--2 X8--4 X8--7 X7|
E|--4-----0-----4-----0-----2-----5---|
    ............................

CHORUS
E|-------------------------------------------------|
B|-------------------------------------------------|
G|-------------------------------------------------|
D|--9-----4-----2------9-----4-----2------9-----4~~|
A|--9 X8--4 X8--2 X16--9 X8--4 X8--2 X16--9 X8--4~~|
E|--7-----2-----0------7-----2-----0------7-----2~~|

BRIDGE

CHORUS
E|------------------------------|
B|------------------------------|
G|------------------------------|
D|-----------------------2------|
A|-4-4-4-4-4-4-4-4-4-----2 X16--|
E|7-7-7-7-7-7-7-7-7-7----0------|

E|-------------------------------------------------|
B|-------------------------------------------------|
G|-------------------------------------------------|
D|--9-----4-----2------9-----4-----2------9-----4~~|
A|--9 X8--4 X8--2 X16--9 X8--4 X8--2 X16--9 X8--4~~|
E|--7-----2-----0------7-----2-----0------7-----2~~|

OUTRO
E|---------------------|
B|---------------------|
G|---------------------|
D|---------------------|
A|----4-4-4-4-4-4-4-4--|
E|---7-7-7-7-7-7-7-7---|

Lyrics:

Something wrong with me
I'm not getting along with me
My eyes pasted on the ceiling
I can't get my mind to stop working

Pre-chorus:
I knew all the blackest blues
You were all my favorite tunes
This was all I had to lose

Chorus:
Tried out for size
to my surprise, I can't fit in anybody's arms
No more disguise, cause I realize
I can't fit in anybody's arms
Oh, you...
Oh, you...
Left just in time

Should have known to turn
Get ahead of the curve
But I've learned
That failure sounds all too familiar to me
To just get my mind to stop working

Pre-chorus
Chorus

As the light darkens again
I lost myself within cause in the end
Still I'm reminded, still I'm reminded

Chorus
Tap to rate this tab
 
# A B C D E F G H I J K L M N O P Q R S T U V W X Y Z