Song name
# A B C D E F G H I J K L M N O P Q R S T U V W X Y Z

There For Tomorrow - Road To Nowhere tab

The is all I've figured out so far, trying to get the rest
INTRO (LEAD GUITAR)
x4
E-----------------------------|
B--------------------13-13----|
G-10-10-10--------------------|
D-----------12-12-12----------|
A-----------------------------|
E-----------------------------|

x2
E-----------------------------|
B-----------------------------|
G-7-7-7-------12-12-----------|
D-------9-9-9-----------------|
A-----------------------------|
E-----------------------------|

x2
E
B-------------10-10------------|
G-------7-7-7------------------|
D-7-7-7------------------------|
A------------------------------|
E------------------------------|
Tap to rate this tab
# A B C D E F G H I J K L M N O P Q R S T U V W X Y Z