Song name
# A B C D E F G H I J K L M N O P Q R S T U V W X Y Z

Thousand Foot Krutch - Fire It Up tab

Help us improve GuitareTab! Take a short survey!
--------------------------------------------------------------------
                Fire It Up - Thousand Foot Krutch
--------------------------------------------------------------------

Sweet new TFK song off their upcoming album Welcome to the Masquerade. 
As of right now the album version of this song is not out yet so I am 
going off the live version but you can find a sample of the album version at:
http://media.emicmg.com/5099926478326/Audio/WMA/30sec/100/103.asx

Couldn't find any tabs for this song but I believe these are correct. 
This is my second tab ever.


        Intro
E:-------------------------------------------------|
B:-------------------------------------------------|
G:-------------------------------------------------|x4
D:-0-3-00-5-0-3-0-5-0-3-0--------------------------|
A:-0-3-00-5-0-3-0-5-0-3-0--------------------------|
D:-0-3-00-5-0-3-0-5-0-3-0--------------------------|

E:-------------------------------------------------|
B:-------------------------------------------------|
G:-5-----------5----------5------------------------|x2
D:---5-3-5-3-0--5-3-5-3-0---5-3-5-3-0--3-3-3--5-5-5|
A:---5-3-5-3-0--5-3-5-3-0---5-3-5-3-0--3-3-3--5-5-5|
D:---5-3-5-3-0--5-3-5-3-0---5-3-5-3-0--3-3-3--5-5-5|

        Verse
E:-------------------------------------------------|
B:-------------------------------------------------|
G:-------------------------------------------------|
D:-3-xxxxx-7-xx-xxx-7-0-xxxxx-3-xx-5-7-0-xxxxx-----|
A:-3-xxxxx-7-xx-xxx-7-0-xxxxx-3-xx-5-7-0-xxxxx-----|
D:-3-xxxxx-7-xx-xxx-7-0-xxxxx-3-xx-5-7-0-xxxxx-----|

E:-------------------------------------------------|
B:-------------------------------------------------|
G:-------------------------------------------------|
D:-3-xx-xxx-7-0-xxxxx-3-xx-x-7---------------------|
A:-3-xx-xxx-7-0-xxxxx-3-xx-x-7---------------------|
D:-3-xx-xxx-7-0-xxxxx-3-xx-x-7---------------------|

        Pre-Chorus
E:-------------------------------------------------|
B:-------------------------------------------------|
G:-------------------------------------------------|x2
D:-0-3-00-5-0-3-0-5-0-3-0--------------------------|
A:-0-3-00-5-0-3-0-5-0-3-0--------------------------|
D:-0-3-00-5-0-3-0-5-0-3-0--------------------------|

Chorus (Same as Intro)

        Breakdown
E:-------------------------------------------------|
B:--6-8-6-5-5h6p5----------------------------------|
G:-0-0-0-0-----------------------------------------|x4
D:-------------------------------------------------|
A:-------------------------------------------------|
D:-------------------------------------------------|

Verse
Pre-Chorus
Chorus


Tabbed By Caleb McKee
Tabbed On July 8, 2009
Email: TeamMM3_Xbox@Yahoo.com
Check out my band Fighting Time!
Related for Fire It Up tab