Song name
# A B C D E F G H I J K L M N O P Q R S T U V W X Y Z

Thousand Foot Krutch - Courtesy Call tab

Thousand Foot Krutch
Courtesy Call
The End Is Where We Begin

Ok this song is awesome! but a pain to play at times. this is 99% correct if not 100%
I done my best trying to tab it so just bare with the tab and you'll be able to play it almost
Spot on. Now some of the strumming patterns may be off but you should be able to figure it out


* = Palm Mute
^ = Mute notes with Fret Hand

Intro - optional
C#|------------|
G#|------------|
E |------------|
B |-0000000000-|
F#|-0000000000-|
B |-0000000000-|
    **********



Intro 2
C#|----------------------------------------------------------------------|
G#|----------------------------------------------------------------------|
E |----------------------------------------------------------------------|
B |-^^-0-7-8-7-0-5-7-5-0-3-5-3-0-2-3-2p0--0-7-8-7-0-5-7-5-0-3-5-3-0-33-3-|
F#|-^^-0-7-8-7-0-5-7-5-0-3-5-3-0-2-3-2p0--0-7-8-7-0-5-7-5-0-3-5-3-0-33-3-|
B |-^^-0-7-8-7-0-5-7-5-0-3-5-3-0-2-3-2p0--0-7-8-7-0-5-7-5-0-3-5-3-0-33-3-|

C#|-------------------------------------------------------------------|
G#|-------------------------------------------------------------------|
E |-------------------------------------------------------------------|
B |-0-7-8-7-0-5-7-5-0-3-5-3-0-2-3-2p0--0-7-8-7-0-5-7-5-0-3-5-3-0-3/77-|
F#|-0-7-8-7-0-5-7-5-0-3-5-3-0-2-3-2p0--0-7-8-7-0-5-7-5-0-3-5-3-0-3/77-|
B |-0-7-8-7-0-5-7-5-0-3-5-3-0-2-3-2p0--0-7-8-7-0-5-7-5-0-3-5-3-0-3/77-|




Verse 1
C#|---------------------------------------------------------|
G#|---------------------------------------------------------|
E |---------------------------------------------------------|
B |-777-77-777-77-777-77-777-77-000-00-000-00-000-00-000-00-| Second time NO Open Notes.
F#|-777-77-777-77-777-77-777-77-000-00-000-00-000-00-000-00-| x2
B |-777-77-777-77-777-77-777-77-000-00-000-00-000-00-000-00-|
    *** ** *** ** *** ** *** **



Pre Chorus
C#|----------------------|
G#|----------------------|
B |-555-55/777-77/888-88-|
F#|-555-55/777-77/888-88-|
B |-555-55/777-77/888-88-|



Chorus
C#|-----------------------|
G#|-----------------------|
E |-----------------------|
B |-333-000-777777/888888-|
F#|-333-000-777777/888888-| x2
B |-333-000-777777/888888-|




Post Chorus
C#|----------------------------------------------------------------------|
G#|----------------------------------------------------------------------|
E |----------------------------------------------------------------------|
B |-^^-0-7-8-7-0-5-7-5-0-3-5-3-0-2-3-2p0--0-7-8-7-0-5-7-5-0-3-5-3-0-33-3-|
F#|-^^-0-7-8-7-0-5-7-5-0-3-5-3-0-2-3-2p0--0-7-8-7-0-5-7-5-0-3-5-3-0-33-3-|
B |-^^-0-7-8-7-0-5-7-5-0-3-5-3-0-2-3-2p0--0-7-8-7-0-5-7-5-0-3-5-3-0-33-3-|

C#|-------------------------------------------------------------------|
G#|-------------------------------------------------------------------|
E |-------------------------------------------------------------------|
B |-0-7-8-7-0-5-7-5-0-3-5-3-0-2-3-2p0--0-7-8-7-0-5-7-5-0-3-5-3-0-3/^^-|
F#|-0-7-8-7-0-5-7-5-0-3-5-3-0-2-3-2p0--0-7-8-7-0-5-7-5-0-3-5-3-0-3/^^-|
B |-0-7-8-7-0-5-7-5-0-3-5-3-0-2-3-2p0--0-7-8-7-0-5-7-5-0-3-5-3-0-3/^^-|

C#|-------------------------------------------------------------------|
G#|-------------------------------------------------------------------|
E |-------------------------------------------------------------------|
B |-0-7-8-7-0-5-7-5-0-3-5-3-0-2-3-2p0--0-7-8-7-0-5-7-5-0-3-5-3-0-33-3-|
F#|-0-7-8-7-0-5-7-5-0-3-5-3-0-2-3-2p0--0-7-8-7-0-5-7-5-0-3-5-3-0-33-3-|
B |-0-7-8-7-0-5-7-5-0-3-5-3-0-2-3-2p0--0-7-8-7-0-5-7-5-0-3-5-3-0-33-3-|

C#|----------------------------------------------------|
G#|----------------------------------------------------|
E |----------------------------------------------------|
B |-0-7-8-7-0-5-7-5-0-3-5-3-0-2-3-2p0--0-7-8-7-0-5-7-5-|
F#|-0-7-8-7-0-5-7-5-0-3-5-3-0-2-3-2p0--0-7-8-7-0-5-7-5-|
B |-0-7-8-7-0-5-7-5-0-3-5-3-0-2-3-2p0--0-7-8-7-0-5-7-5-|




Verse 2
C#|---------------------------------------------------------|
G#|---------------------------------------------------------|
E |---------------------------------------------------------|
B |-777-77-777-77-777-77-777-77-000-00-000-00-000-00-000-00-| Second time NO open Notes
F#|---Silent Here, Only Bass----000-00-000-00-000-00-000-00-| x2
B |-777-77-777-77-777-77-777-77-000-00-000-00-000-00-000-00-|




Pre Chorus
C#|-----------------------------|
G#|-----------------------------|
E |-----------------------------|
B |-555-55/777-77/888-88/101010-|
F#|-555-55/777-77/888-88/101010-|
B |-555-55/777-77/888-88/101010-|




Chorus                                   Second Part
C#|-----------------------|       |------------------|
G#|-----------------------|       |------------------|
E |-----------------------|       |------------------|
B |-333-000-777777/888888-|       |-77777/88888-88-8-|
F#|-333-000-777777/888888-| x2    |-77777/88888-88-8-|
B |-333-000-777777/888888-|       |-77777/88888-88-8-|
                                    *********** ** *



Outro 1
C#|----------------------------------------------------------------------|
G#|----------------------------------------------------------------------|
E |----------------------------------------------------------------------|
B |-^^-0-7-8-7-0-5-7-5-0-3-5-3-0-2-3-2p0--0-7-8-7-0-5-7-5-0-3-5-3-0-33-3-|
F#|-^^-0-7-8-7-0-5-7-5-0-3-5-3-0-2-3-2p0--0-7-8-7-0-5-7-5-0-3-5-3-0-33-3-|
B |-^^-0-7-8-7-0-5-7-5-0-3-5-3-0-2-3-2p0--0-7-8-7-0-5-7-5-0-3-5-3-0-33-3-|

C#|-------------------------------------------------------------------|
G#|-------------------------------------------------------------------|
E |-------------------------------------------------------------------|
B |-0-7-8-7-0-5-7-5-0-3-5-3-0-2-3-2p0--0-7-8-7-0-5-7-5-0-3-5-3-0-3/^^-|
F#|-0-7-8-7-0-5-7-5-0-3-5-3-0-2-3-2p0--0-7-8-7-0-5-7-5-0-3-5-3-0-3/^^-|
B |-0-7-8-7-0-5-7-5-0-3-5-3-0-2-3-2p0--0-7-8-7-0-5-7-5-0-3-5-3-0-3/^^-|

C#|-------------------------------------------------------------------|
G#|-------------------------------------------------------------------|
E |-------------------------------------------------------------------|
B |-0-7-8-7-0-5-7-5-0-3-5-3-0-2-3-2p0--0-7-8-7-0-5-7-5-0-3-5-3-0-33-3-|
F#|-0-7-8-7-0-5-7-5-0-3-5-3-0-2-3-2p0--0-7-8-7-0-5-7-5-0-3-5-3-0-33-3-|
B |-0-7-8-7-0-5-7-5-0-3-5-3-0-2-3-2p0--0-7-8-7-0-5-7-5-0-3-5-3-0-33-3-|

C#|-----------------------------------------------------------------|
G#|-----------------------------------------------------------------|
E |-----------------------------------------------------------------|
B |-0-7-8-7-0-5-7-5-0-3-5-3-0-2-3-2p0--0-7-8-7-0-5-7-5-0-3-5-3-0-33-|
F#|-0-7-8-7-0-5-7-5-0-3-5-3-0-2-3-2p0--0-7-8-7-0-5-7-5-0-3-5-3-0-33-|
B |-0-7-8-7-0-5-7-5-0-3-5-3-0-2-3-2p0--0-7-8-7-0-5-7-5-0-3-5-3-0-33-|




Outro 2 (Instrumental Part)
C#|----------------------------------------------------------------------|
G#|----------------------------------------------------------------------|
E |----------------------------------------------------------------------|
B |-^^-0-7-8-7-0-5-7-5-0-3-5-3-0-2-3-2p0--0-7-8-7-0-5-7-5-0-3-5-3-0-33-3-|
F#|-^^-0-7-8-7-0-5-7-5-0-3-5-3-0-2-3-2p0--0-7-8-7-0-5-7-5-0-3-5-3-0-33-3-|
B |-^^-0-7-8-7-0-5-7-5-0-3-5-3-0-2-3-2p0--0-7-8-7-0-5-7-5-0-3-5-3-0-33-3-|

C#|-------------------------------------------------------------------|
G#|-------------------------------------------------------------------|
E |-------------------------------------------------------------------|
B |-0-7-8-7-0-5-7-5-0-3-5-3-0-2-3-2p0--0-7-8-7-0-5-7-5-0-3-5-3-0-3/77-|
F#|-0-7-8-7-0-5-7-5-0-3-5-3-0-2-3-2p0--0-7-8-7-0-5-7-5-0-3-5-3-0-3/77-|
B |-0-7-8-7-0-5-7-5-0-3-5-3-0-2-3-2p0--0-7-8-7-0-5-7-5-0-3-5-3-0-3/77-|
Tap to rate this tab
# A B C D E F G H I J K L M N O P Q R S T U V W X Y Z